Massari - Smile For Me Chords & Tabs

 

Smile For Me Chords & Tabs

Massari Chords & Tabs

Version: 3 Type: Tab 0 ratings
1 star 2 stars 3 stars 4 stars 5 stars
comments

Smile For Me Tab

Massari - Smile for me
Tabbed by:Raidlink
Email:Weexor@gmail.com

intro: 2x
e|----11-11-11-11-11-10-8---|
B|-8------------------------|
G|--------------------------|
D|--------------------------|
A|--------------------------|
E|--------------------------|

Base: played til the song is over.
e|-----11-11-11-11-11-10-8--------11-11-11-11-11-10-8----------|
B|-8-9---------------------9----9----------------------9-------|
G|-------------------------------------------------------------|
D|-------------------------------------------------------------|
A|-------------------------------------------------------------|
E|-------------------------------------------------------------|
[ Tab from: http://www.guitartabs.cc/tabs/m/massari/smile_for_me_tab_ver_3.html ]
e|-----11-11-11-11-11-10-8---------11-11-11-11-11-10-8---------|
B|-9-8----------------------8----8---------------------8-------|
G|-------------------------------------------------------------|
D|-------------------------------------------------------------|
A|-------------------------------------------------------------|
E|-------------------------------------------------------------|

played after intro:strummed chords
e|------8-----8-------8------8--------3-----3------3------3----|
B|------9-----9-------9------9--------4-----4------4------4----|
G|------10----10------10-----10-------5-----5------5------5----|
D|------10----10------10-----10-------5-----5------5------5----|
A|--8---8-----8---8---8------8-----3--3-----3---3--3------3----|
E|-------------------------------------------------------------|

Hollah for mistakes.
Comments