Mass Budgie Suicide - Will The Banker Chords & Tabs

 

Will The Banker Chords & Tabs

Mass Budgie Suicide Chords & Tabs

Version: 1 Type: Tab 0 ratings
1 star 2 stars 3 stars 4 stars 5 stars
comments

Will The Banker Tab

Intro:

 +----------------------||------------------------|| 
 |----------------------||------------------------|| 
 |----5-5---------------||--5-5-------------------|| 
 |----5-5-7-7-5---5-x2-||--5-5-7-7--5-55555-x2-||
 |----3-3-7-7-5---5-----||--3-3-7-7--5-55555-----||
 +--------5-5-3---3-----||-------5-5--3-33333-----||				        
				    
Verse:

 +---------------------------------------||
 |---------------------------------------||
 |--5555--------------------------555555-||
 |--5555-5555-3333-5555-3333-5555-555555-||   x4  
 |--3333-5555-3333-5555-3333-5555-333333-||
 +-------3333-1111-3333-1111-3333--------||

Chorus:

 +---------------------------------------------||
 |---------------------------------------------||
 |-------1010------55-------1010--9----7----5--||
 |---77--1010--55--55---77--1010--9----7----5--||   x2
 |---77---8-8--55--33---77---8-8--7----5----3--||
 +---55-------33-------55---------------------||

Solo:
[ Tab from: http://www.guitartabs.cc/tabs/m/mass_budgie_suicide/will_the_banker_tab.html ]
 +----12p8---10p8----12p8---10p8---12p8---10p8---12p8----10p8-8-10p8--
 |--8------8-------8------8------8------8------8------8---------------
 |--------------------------------------------------------------------
 |--------------------------------------------------------------------
 |--------------------------------------------------------------------
 +--------------------------------------------------------------------

 +--------------------------812b14-12b14-12b14-----------------8-----
 |--10p8--------8-------8/9---------------------10--108-88h10---10--
 |------9----9---7-7h9------------------------------------------------
 |--------10----------------------------------------------------------
 |--------------------------------------------------------------------
 +--------------------------------------------------------------------

 +---------------------------|| 
 |--10p8---1010p8-----------|| 
 |-------9---------9--7--5---|| 
 |---------------------------|| 
 |---------------------------|| 
 +---------------------------|| 

Outro:

+----------------------||-------------------------------------------| 
|----------------------||-------------------------------------------| 
|----5-5---------------||--5-5-----------------5-5--------99--77-5-|
|----5-5-7-7-5---5-x2-||--5-5-7-7--5-55555--5-5-7-7---99--77-5-|
|----3-3-7-7-5---5-----||--3-3-7-7--5-55555---3-3--7-7---77--55-3-|
+--------5-5-3---3-----||-------5-5--3-33333--------3-3-------------|
Comments