Mason Jennings - The Light Part Ii Chords & Tabs

 

The Light Part Ii Chords & Tabs

Mason Jennings Chords & Tabs

Version: 1 Type: Tab 0 ratings
1 star 2 stars 3 stars 4 stars 5 stars
comments

The Light Part Ii Tab

   
the light part II
by mason Jennings
tabbed by gavin wahl-stephens
album: use your voice
tune half step down

intro/verse
-7-------7------/--5-------5-----/--4-------4-----/-2-------2------------------|
-----5-------5--/------5-------5-/------5-------5-/-----4-------4--------------|
-4-4---4---4----/--4-4---4---4---/--4-4---4---4---/-4-4---4---4----------------|
----------------/----------------/----------------/----------------------------|
----------------/----------------/----------------/----------------------------|
----------------/----------------/----------------/----------------------------|
[ Tab from: http://www.guitartabs.cc/tabs/m/mason_jennings/the_light_part_ii_tab.html ]
chorus
_______________________________________________________________
/ C#m                      C#m                         A                             A
-----------------------------------------------/---------------|
--5-------5-----/-5-------5-----/-2-------2-----/-2------2-----|
-----6-------6-/-----6-------6-/-----2-------2-/-----2------2--|
---6---6---6---/---6---6---6---/---2---2---2---/---2---2--2----|
-4-------------/-4-------------/-0-------------/-0-------------|
---------------/---------------/---------------/---------------|
______________________________  _1,2,3______________________________
B               B            / /   E              E              /
-4-------4-----/-4-------4-----/---0-------0-----/-0------0-------|
-----4-------4-/-----4-------4-/-------0-------0-/-----0------0---|
---4---4---4---/---4---4---4---/-----------------/----------------|
-2-------------/-2-------------/-----2---2---2---/---2---2--2-----|
---------------/---------------/-----------------/----------------|
---------------/---------------/---0-------------/-0--------------|

4______________________________
/                             /
-0----2----4----7----12--------|
-------------------------------|
-------------------------------|
-------------------------------|
-------------------------------|
-0----2----4----7----12--------|


Bridge same picking pattern as the chorus with these chords:

C#m,      C#m,A,A,E,E
...deny you...
E         E,C#m,C#m,A,A,B,B
I want...
E         E,C#m,C#m,A,A,E,E
Our love...
E         E,C#m,C#m,A,A,B,B
Please...


Intro 2x
Verse
Chorus
Verse
Chorus
Bridge
Verse
Chorus
Outro 4x


Outro (after four times, end on E)

-0--------------------------|
--------0-----0h2---2-0---0-|
------1-----1-----1-----1---|
----------------------------|
----2------2----------------|
-0--------------------------|
Comments