Mascis J - Freedom Chords & Tabs

 

Freedom Chords & Tabs

Mascis J Chords & Tabs

Version: 1 Type: Bass Tab 0 ratings
1 star 2 stars 3 stars 4 stars 5 stars
comments

Freedom Bass Tab

Freedom

By J Mascis and The Fog on Free so Free

Tabbed by Brian Pruvost (the.miner@wanadoo.fr)

----
Bass :
 
 P.1
G|--3/5-5-5--3-2-----------------2/3-3-3--2-0----------------|
D|----------------3-3-3-------3---------------3-3-3-------3--|
A|----------------------3-3-3-----------------------3-3-3----|
E|-----------------------------------------------------------|

  P.2
G|--------------3-2------------------|
D|------------------3-3-3-3-3-3-3-3--|
A|--1-1-1-1-1-1----------------------|
E|-----------------------------------|
[ Tab from: http://www.guitartabs.cc/tabs/m/mascis_j/freedom_btab.html ]
  P.3
G|-----------------------------------|
D|-----------------------------------|
A|--3-3-3-3-3-3-3-3------------------|
E|------------------1-1-1-1-1-1-1-1--|

  P.4
G|-----------------------------------|
D|------------------3-3-3-3-3-3-3-3--|
A|--3-3-3-3-3-3-3-3------------------|
E|-----------------------------------|

  P.5
G|-------------------------------|
D|-------------------------------|
A|--6—-6--6-6-6-6-8—-8-—8-8-8-8--|
E|-------------------------------|

 Structure :

Intro :
p.1 x4 / p.2 x4 

-Verse 1:
p.3   / p.4 / p.3 x2

-Chorus 1:
p.2 x4

-Verse 2:
p.3 / p.4 / p.3 x2

-Chorus 2:
p.2 x4

-Break 1:
p.1 x2 / p.2 x4 / p.5  x12

-Chorus 3:
p.2 x8

-Break 2:
p.1 x2

-Chorus 4:
p.2 x8
Comments