Marx Richard - Now And Forever Chords & Tabs

 

Now And Forever Chords & Tabs

Marx Richard Chords & Tabs

Version: 3 Type: Tab 0 ratings
1 star 2 stars 3 stars 4 stars 5 stars
comments

Now And Forever Tab

Song: Now and forever
by:   Richard Marx

Tab by:  Emmanuel
E-mail:  fatalfury@edsamail.com.ph

||----------------------------------------------------------------------|
||----------------------------------------------------------------------|
||----------------------------------------------------------------------|
||----5---5s7----4~~~------5-----7-----7s9---9~~~-----------------------|
||----------------------------------------------------------------------|
||----------------------------------------------------------------------|


||----------------------------------------------------------------------|
||----4h5--------4h5~~~----5h7p5p4~~~-----------------------------------|
||----------7---------------------------5------7~~~~~-------------------|
||----------------------------------------------------------------------|
||----------------------------------------------------------------------|
||----------------------------------------------------------------------|



||-------------------------------------------------------------7~~~-----|
||-----------------------------6---------------7----7h8p7p5-------------|
||-------------------4h7----4----------4--------------------------------|
||----------4--5--7------------------------7----------------------------|
||----5--7--------------------------------------------------------------|
||----------------------------------------------------------------------|

[ Tab from: http://www.guitartabs.cc/tabs/m/marx_richard/now_and_forever_tab_ver_3.html ]
||----7s8-----7----------------------7----------------------------------|
||-----------------10----------10-------8--------------8--8------8s10~~-|
||----------------------------------------------7--7----------7---------|
||----------------------------------------------------------------------|
||----------------------------------------------------------------------|
||----------------------------------------------------------------------|


||----------------------------------------------------------------------|
||---10----8s7p5--------------------------------------------------------|
||---------------------7p5p4p5------------------------------------------|
||----------------------------------------------------------------------|
||----------------------------------------------------------------------|
||----------------------------------------------------------------------|


||----------------------------------------------------------------------|
||----------------------------------------------------------------------|
||----------------------------------------------------------------------|
||----------------------------------------------------------------------|
||----------------------------------------------------------------------|
||----------------------------------------------------------------------|



Any suggestions 
Please mail me
fatalfury@edsamail.com.ph



Goodluck!!!!!!!!!!!!!  and Enjoy










Comments