Marx Richard - Now And Forever Solo Chords & Tabs

 

Now And Forever Solo Chords & Tabs

Marx Richard Chords & Tabs

Version: 1 Type: Tab 0 ratings
1 star 2 stars 3 stars 4 stars 5 stars
comments

Now And Forever Solo Tab

Now and forever solo
by Richard Marx

Here´s a correction of the already existing version.
The changes are marked out with an *, to make it easier.


-------------------------------------
-------------------------------------
----------2h4-4--4-5---4-5-5h7-4-----
5h7-4-5-7------------7-----------5-7-
-------------------------------------
-------------------------------------
          *


------------------------------7------
----------------8-----7-7h8-5--------
----------4-7-4----------------------
----4-5-7---------9-7----------------
5-7----------------------------------
-------------------------------------
            *              (*)

[ Tab from: http://www.guitartabs.cc/tabs/m/marx_richard/now_and_forever_solo_tab.html ]
7h8-7--------------------------------
------10-10-12-8--------8-8---10-----
--------------------7-7-----7--------
-------------------------------------
-------------------------------------
-------------------------------------
      [ * * * ]               *


-------------------------------------
8p7----------------------------------
------9-7----------------------------
----------10-9-7-9h10----------------
-------------------------------------
-------------------------------------
(*)


my e-mail is parisirap@hotmail.com, but there
really is no point in writing to me.
any complaints might as well be directed to a brick wall,
cause i probably won´t care if you´re mad or whatever you happen to be.
although i´m, of course, glad to see further corrections,
if i´ve made some mistakes.
see ya...

(the rules about my writing in english are quite about the same as above)
Comments