Marvelous 3 - Freak Of The Week Chords & Tabs

 

Freak Of The Week Chords & Tabs

Marvelous 3 Chords & Tabs

Version: 3 Type: Tab 0 ratings
1 star 2 stars 3 stars 4 stars 5 stars
comments

Freak Of The Week Tab

   
Marvelous 3
"Freak of the Week"
Tabbed by: John Culbert
culbertt@hurontel.on.ca

Moderate Rock : 136
Standard Tuning
EADGBE

Intro and Verse
E-------------------------------------
B------------------------------------
G------------------------------------
D-------0-------0----------------------
A---------4-------4--------------------
E----3------5--------------------------
Chords behind this riff are:
G5 A5 F#5

      Lyrics
      I spend a lot on the all clothes that i got,
      cause all the geeks that i meet, they all look cooler than me
      But what to do when they're all lookin at you
      Cause you're the freak of the week cause you're on the TV
[ Tab from: http://www.guitartabs.cc/tabs/m/marvelous_3/freak_of_the_week_tab_ver_3.html ]
      Chorus:
         D                        G5            D                        G5
        Can you make me a promise? Stop it before we begin
                      D                  G5            Bm                A
G5                      A  F#5
        Will you hold onto my head? If i ever lose it again?
Then
G5  F#5 12 times

     Lyrics
     I've got a shrink i swear he's elvis i think
     he wears the coolest suede shoes when i come in with the blues
     he thinks its all about culture and art
     but the truth of it is that it rips me apart

    chorus
    Interlude
    e ------------------------------------
    b------------------------------------
    g------- 6-/7--7--6------------------
    d------------------------------------
    a 7 7  ---4-/5--5--4- 7--5-5----------
    e 5 5  ---------------5--3-3----------

   Bridge:


G5 P.M......................... A5  B5
   Tell me I sold out           Tell me I sold out go ahead

   Chorus 2x

  Outro
 G6     A5      B5 Bsus4
Comments