Marvelous 3 - Freak Of The Week Chords & Tabs

 

Freak Of The Week Chords & Tabs

Marvelous 3 Chords & Tabs

Version: 1 Type: Tab 0 ratings
1 star 2 stars 3 stars 4 stars 5 stars
comments

Freak Of The Week Tab

   
TITLE: Freak of the Week
ARTIST: Marvelous Three
TABBED BY: Rajeev Jacob


This song is done in standard tuning (Eadgbe)

The riff and verse go like this...
Play clean

e] ---------------------------------]
b] ---------------------------------]
g] ---------------------------------]
d] -------0-----------0-------------]
a] -----------4---0------4---0------]
E] --3------------------------------]





The chorus uses these chords in the order they are in...
You have to listen to the song to figure out the strumming pattern.
Play with distortion

D   G   D   G   D   G   Bm   A   G





After the chorus play this little piece then return to the verse...

e] --x---x---x---x---x---x---x---x---]
b] --x---x---x---x---x---x---x---x---]
g] --x---x---x---x---x---x---x---x---]
d] --x---x---x---x---x---x---x---x---]
a] --4---5---4---5---4---5---4---5---]
E] --2---3---2---3---2---3---2---3---]





After the second verse, you play the chorus and then you do this...
[ Tab from: http://www.guitartabs.cc/tabs/m/marvelous_3/freak_of_the_week_tab.html ]
e] --------------x---x---x-------3---3---x---x---x---------------x---x---x-----------3---3---x---x---x-----]
b] ------2---2---x---x---x---2---3---3---x---x---x-------2---2---x---x---x---2-------3---3---x---x---x-----]
g] ------2---2---7---7---6---2---0---0---7---7---6-------2---2--11---11--9---2-------0---0---11--11--9-----]
d] ------2---2---x---x---x---2---0---0---x---x---x-------2---2---x---x---x---2-------0---0---x---x---x-----]
a] --------------5---5---4-------2---2---5---5---4---------------9---9---7-----------2---2---9---9---7-----]
E] --3-----------x---x---x-------3---3---x---x---x---3-----------x---x---x-----------3---3---x---x---x-----]


e] ------------------------------------------------------]
b] ------2---2---2---2---2---2---2---2---2---2---2---2---]
g] ------2---2---2---2---2---2---2---2---2---2---2---2---]
d] ------2---2---2---2---2---2---2---2---2---2---2---2---]
a] ------------------------------------------------------]
E] --3---------------------------------------------------]





Keep playing this part until the verse starts again, and then do the riff and finally the chorus two times.

d] ----------------------------------------------------------------------------------------------------------------------]
a] -------------------------------------------------------------------0---2---2---2---2---2---2---2---2---2---2---2---2--]
E] --3---3---3---3---3---3---3---3---3---3---3---3---3---3---3-----------------------------------------------------------]
 Tell me a solo...Tell me a solo...Go ahead....


If you have any questions or comments, please e-mail me: shoughtyman@yahoo.com
Comments