Marvelous 3 - 2 Chords & Tabs

 

2 Chords & Tabs

Marvelous 3 Chords & Tabs

Version: 1 Type: Bass Tab 0 ratings
1 star 2 stars 3 stars 4 stars 5 stars
comments

2 Bass Tab

   
Artist: Marvelous 3
Title: #27
Album: Hey!Album
Tabbed by: Curtis McCartney
Send any comments to: sharkydart@fuse.net

(no intro to this one)

Riff A
======
G:----------------------------|
D:----------------------------|
A:-5---4-----4-----2-0---2-0--|
E:---5---7-5---7-3-----3------|

Riff B
======
G:-----------------------------------|
D:-----------------------------------|
A:-5---4-----4-----2-0----12-10----0-|
E:---5---7-5---7-3-----12-------12---|

Riff C
======
G:--------------------------------------|
D:--------------------------------------|
A:--------------------------------------|
E:-333333333-55555555-33333333-55555555-|

Riff D
======
G:-------------------------------------|
D:-------------------------------------|
A:-55555555-44444444-22222222-00000000-|
E:-------------------------------------|
[ Tab from: http://www.guitartabs.cc/tabs/m/marvelous_3/2_btab.html ]
Riff E
======
G:----------------------------------------------------------------|
D:----------------------------------------------------------------|
A:---------------------7-5-0-7-5-4-0------------------------0---0-|
E:-22-33-55-77-22-33-5---------------22-33-55-77-88888888-5---5---|

Outro
=====
G:----------------------------|
D:----------------------------|
A:---------------------5------|
E:-3333-5555-3333-5555--------|

Order Played:
=============
A (3 times)
B
C
D (2 times)
A (2 times)
B
C
D (2 times)
E
D (4 times)
*Outro*


$$$$$$$$$$$$$$$$$$$$$$$$$$$$$$$$$$$$$$$$$$$$$$$$$$$$$$
Tabber's Note:
--------------
Remember; I tabbed this sucker so you didn't have to -
don't disrespect me like other people have in the past
by changing a small detail and taking credit for it.
For all you cool people - have fun and enjoy! =)

Comments