Marty Casey - Trees Chords & Tabs

 

Trees Chords & Tabs

Marty Casey Chords & Tabs

Version: 1 Type: Tab 0 ratings
1 star 2 stars 3 stars 4 stars 5 stars
comments

Trees Tab

   
Song: Trees
Artist: Marty Casey (Rockstar INXS)
Tabbed by: Fatt Sorum (fatt_sorum@hotmail.com)

Hereís Trees from ĎRock Star: INXSí with easier chords, though it needs half step down
tuning (Eb Ab Db Gb Bb Eb)

F: 133211 or xx3211
A: 577655 or x02220
Dm: x57765 or xx0231
Bb: 688766 or x13331


Verse (x2)

P.M--------------------------------------------------------------|
|----------------------------------------------------------------|
|----------------------------------------------------------------|
|----------------------------------------------------------------|
|3-3-3-3-3-3-3-3-3-3-3-3-3-3-3-3-7-7-7-7-7-7-7-7-7-7-7-7-7-7-7-7-|
|3-3-3-3-3-3-3-3-3-3-3-3-3-3-3-3-7-7-7-7-7-7-7-7-7-7-7-7-7-7-7-7-|
|1-1-1-1-1-1-1-1-1-1-1-1-1-1-1-1-5-5-5-5-5-5-5-5-5-5-5-5-5-5-5-5-|
 

P.M--------------------------------------------------------------|
|----------------------------------------------------------------|
|----------------------------------------------------------------|
|7-7-7-7-7-7-7-7-7-7-7-7-7-7-7-7---------------------------------|
|7-7-7-7-7-7-7-7-7-7-7-7-7-7-7-7-8-8-8-8-8-8-8-8-8-8-8-8-8-8-8-8-|
|5-5-5-5-5-5-5-5-5-5-5-5-5-5-5-5-8-8-8-8-8-8-8-8-8-8-8-8-8-8-8-8-|
|--------------------------------6-6-6-6-6-6-6-6-6-6-6-6-6-6-6-6-|

Chorus (Full Strumming)

         F              A
Itíll be you and me, up in the trees

        Dm                      Bb 
And the forest will give us the answer


Verse (x2)
[ Tab from: http://www.guitartabs.cc/tabs/m/marty_casey/trees_tab.html ]
P.M--------------------------------------------------------------|
|----------------------------------------------------------------|
|----------------------------------------------------------------|
|----------------------------------------------------------------|
|3-3-3-3-3-3-3-3-3-3-3-3-3-3-3-3-7-7-7-7-7-7-7-7-7-7-7-7-7-7-7-7-|
|3-3-3-3-3-3-3-3-3-3-3-3-3-3-3-3-7-7-7-7-7-7-7-7-7-7-7-7-7-7-7-7-|
|1-1-1-1-1-1-1-1-1-1-1-1-1-1-1-1-5-5-5-5-5-5-5-5-5-5-5-5-5-5-5-5-|
 

P.M--------------------------------------------------------------|
|----------------------------------------------------------------|
|----------------------------------------------------------------|
|7-7-7-7-7-7-7-7-7-7-7-7-7-7-7-7---------------------------------|
|7-7-7-7-7-7-7-7-7-7-7-7-7-7-7-7-8-8-8-8-8-8-8-8-8-8-8-8-8-8-8-8-|
|5-5-5-5-5-5-5-5-5-5-5-5-5-5-5-5-8-8-8-8-8-8-8-8-8-8-8-8-8-8-8-8-|
|--------------------------------6-6-6-6-6-6-6-6-6-6-6-6-6-6-6-6-|



Chorus (Full Strumming)

         F              A
Itíll be you and me, up in the trees

        Dm                      Bb 
And the forest will give us the answer


          F             A
Itís just you and I, up in the sky

       Dm               Bb
Itís a combination for disaster



Bridge

Dm                           Bb
Yeah, Yeah, Yeah, Yeah Yeah, Yeah

E
We got one shot so where do we go from here


Chorus (Full Strumming)

         F              A
Itíll be you and me, up in the trees

        Dm                      Bb 
And the forest will give us the answer


          F             A
Itís just you and I, up in the sky

       Dm               Bb
Itís a combination for disaster

   Dm                             Bb (fade out)
And I know thereís more for us in this life......... 



Comments