Martsch Doug - Heart Things You Dont Need Chords & Tabs

 

Heart Things You Dont Need Chords & Tabs

Martsch Doug Chords & Tabs

Version: 1 Type: Tab 0 ratings
1 star 2 stars 3 stars 4 stars 5 stars
comments

Heart Things You Dont Need Tab

   
Artist:  Doug Martsch
Album:   Now You Know
Song:    Heart (Things You Don’t Need)

Standard tuning

Chords:   Cmaj7: x22010    G6: 022030

Em 	      D           Em           Cmaj7       Em          D                 C
Don't you get sick of it, stuck in the thick of it making new friends you don't need?

Em         D         Em         Cmaj7	       Em      D             C
Isn't it amazing how everyone's crazy about violence they can’t conceive?

D      G6           Cmaj7     G        D         G6        Cmaj7
I hung around like another pronoun, familiar but lacking a name.

       D       Am      Em
It was good enough for me.

G     D             Am      D                 Am           Em
     Things never shared, things that don't mean much to me.

G     D             Am      D                 Am           Em
     Things never shared, things that don't mean much to me.

G   D     Am       Am                Em  C
I'm on my guard....wait until you see... sometime

G      D     Am          D      Am       Em
What's in my heart, it's good enough for me.

[Solo w/ slide over chords over first four lines (until “It was good enough for me”)]

G     D             Am      D                 Am           Em
     Things never shared, things that don't mean much to me.

G     D             Am      D                 Am           Em
     Things never shared, things that don't mean much to me.

G   D     Am       Am                Em  C
I'm on my guard....wait until you see... sometime
[ Tab from: http://www.guitartabs.cc/tabs/m/martsch_doug/heart_things_you_dont_need_tab.html ]
G      D     Am          D      Am       Em
What's in my heart, it's good enough for me.

       D      Am       Em
It was good enough for me.

       D      Am       Em
It was good enough for me.



[Solo w/ slide, played over chords] [1:32 - 2:14 on the album track]

[1:32]
   Em 	        D     Em        Cmaj7  Em          D          C
e|--------------------------------------------------------------------------|
B|------5-----5/7--------5-----7/8----8--7\5--5--7--5\3--3--3/5-------------|
G|-2/4-----4---------/4-----4-------------------------------------5---------|

[1:44]
   Em         D     Em         Cmaj7	 Em         D          C
e|--------------------------------------------------------------------------|
B|------5-----5/7---8\7--5------------5--5/7--5--3--3/5--3------------------|
G|-2/4-----4----------------4--4/5--------------------------5---------------|

[1:56]
   D          G6            Cmaj7       G      D          G6           Cmaj7
e|-------------------------------------------------------------------------------------|
B|------7-----8\7--7\5--5---5/7--5--7--9/12---------7-----8\7--7\5--5--5/7\5/7\5/7\5/7-|
G|-5/7-----7-----------------------------------5/7-----7-------------------------------|

[2:09]
  D          Am         Em
|------------------------------------|
|-8\7--------5\3---------------------|
|-----------------------2/4----------|


Solo notes: Doug plays pretty much every other song on this album in a modified open-G tuning.  The solo may be in that tuning, but it was a pain in the ass to keep tuning back and forth, so feel free to experiment.  This one gets all the inflections my ear could pick up, though, so unless you’re playing with someone (or *really* fast at re-tuning), the standard tuning transcription should be fine.

Feel free to email me at ccpmofo@hotmail.com with suggested changes, other Doug Martsch & BTS tabs, etc.

Comments