Martinez Angie - If I Could Go Chords & Tabs

 

If I Could Go Chords & Tabs

Martinez Angie Chords & Tabs

Version: 1 Type: Tab 0 ratings
1 star 2 stars 3 stars 4 stars 5 stars
comments

If I Could Go Tab

Angie Martinez w/ Sacario and Lil Mo
"If I Could Go With You"

At first i thought this intro would be hella easy but it actually took a few minutes to figure out.
This song is gangtsa yo.
[ Tab from: http://www.guitartabs.cc/tabs/m/martinez_angie/if_i_could_go_tab.html ]
Intro
-------------------------------------------------------------------------------
-------------------------------------------------------------------------------
----9---10--9------------------------------9----9-----9------------------------
---10----------10--7-----7-----9---10--9---7--7---10--7------------------------
-------------------7---7---7---11--------7-------------------------------------
-------------------------------------------------------------------------------

For the rest of the song its just the same thing without the first note
-------------------------------------------------------------------------------
-------------------------------------------------------------------------------
-------10--9-----------------------------9----9-----9--------------------------
-------------10--7-----7-----9---10--9---7--7---10--7------repeat--------------
-----------------7---7---7---11--------7---------------------------------------
-------------------------------------------------------------------------------
Comments