Martineau Alice - Inside Of You Chords & Tabs

 

Inside Of You Chords & Tabs

Martineau Alice Chords & Tabs

Version: 2 Type: Tab 0 ratings
1 star 2 stars 3 stars 4 stars 5 stars
comments

Inside Of You Tab

   
Inside of you - Alice Martineau - from the album Daydreams

tabbed by greendayfan333@aol.com

INTRO and ENDING:
E ------10-------|---------|------10-------|
B -7-8------7----|---------|-7-8------7----|
G -------------9-|-------9-|-------------9-|
D ---------------|---------|---------------|
A ---------------|---------|---------------|
E ---------------|---------|---------------|

chords to be used:
    D    F#m   Bm     G    Em     A
E --2--|--2--|--2--|--3--|--0--|--0--|
B --3--|--2--|--3--|--0--|--0--|--2--|
G --2--|--2--|--4--|--0--|--0--|--2--|
D --0--|--4--|--4--|--0--|--2--|--2--|
A -----|--4--|--2--|--2--|--2--|--0--|
E -----|--2--|--2--|--3--|--0--|--0--|


INTRO

SECTION A
          D
i like to watch you
      F#m
from above
           Bm       G
its not an ordinary love
          D
i like to feel you
            F#m 
so close to me
       Bm
bet im nearer than youll
     G
ever see

SECTION B
       Em
and im sitting up against the wall
A      
trying to find my way
    Em
ill play it safe in case i fall
     A
from yesterday
[ Tab from: http://www.guitartabs.cc/tabs/m/martineau_alice/inside_of_you_tab_ver_2.html ]
CHORUS
                 D         F#m
youre letting me live.........     
          Bm        G
inside of you........
                 D         F#m
youre letting me live........
           Bm       G 
as someone new.......

SECTION A
            D
i wanted to be
         F#m
forever young
        Bm
you and me
               G
now im forever free
            D
i wanted to learn
              F#m
from our memories
            Bm
youre never cold thogh
                  G
youre not here to hold

SECTION B
       Em
and im sitting up against the sky
A
trying to find my way
Em
nothing to do but wonder why its not 
A
yesterday

CHORUS (AS BEFORE)

(hold chord)
believe in me 
cos i believe it

SECTION C
F#m
somewhere there is an angel
Bm
watching over your life
G
sometimes there is a silence
Em
somewhere a face in the light
F#m
know this place is where i am
Bm
know this face is of me
G                          A
know im watching over you....

do you feel it too?

CHORUS

play ENDING then end on a D chord.
Comments