Martin Stenmarck - Las Vegas Chords & Tabs

 

Las Vegas Chords & Tabs

Martin Stenmarck Chords & Tabs

Version: 1 Type: Bass Tab 0 ratings
1 star 2 stars 3 stars 4 stars 5 stars
comments

Las Vegas Bass Tab

Song: Las Vegas
Artist: Martin Stenmarck

G---------------------------------|
D--2----2--0----0------------0----|
A------------------3-3--2--2---2--| x5
E---------------------------------|


G---------------------|
D--------------2------|
A--3----3--2----------|
E---------------------|


G---------------------------------|
D--2----2--0----0------------0----|
A------------------3-3--2--2---2--| x3
E---------------------------------|


G---------------------------|
D---------------2---2-------|
A--3----3--2----------------|
E---------------------3--4--|


G---------------------------------------------------------|
D-----------------------------------------------------0-2-|
A--------------------5--5-----------------------3---------|
E--5----5-5----5-5--------1-2-3----3-3----3-3-------------|


G--------------------------------------------4----4---4------|
D----------------------------------------4-4-----------------|
A-------------------------0---2----2-2--------------------2--|
E--2----2-2----2-----2------2--------------------------------|


-CHORUS-
[ Tab from: http://www.guitartabs.cc/tabs/m/martin_stenmarck/las_vegas_btab.html ]
G------------------------------2------------------------------------------|
D-------2---2-0-2-----------2-------2----0----0-------0-------------------|
A----------------------0---------------------------0-----3--2----2---2---2|
E--0----------------0--------------------------------------------------2--|


G-----------------------------------------------------------------|
D-----------------------------------------------------------------|
A--3----3--3---3-------0--------0------3-3--3--3--2---2--2--------|
E------------3------3--------0------0------------------------2-1--|



G------------------------------2------------------------------------------|
D-------2---2-0-2-----------2-------2----0----0-------0-------------------|
A----------------------0---------------------------0-----3--2----2---2---2|
E--0----------------0--------------------------------------------------2--|


G------------------------------------------------------|
D------------------------------------------------------|
A--3----3--3---3-------0--------0------3-3--3--3--2----|
E------------3------3--------0------0------------------|

Repeat the song from the beginning


G----------------------------|
D----------------------------|
A--------2--0----------------|
E--0--3--------3--0-0--------|
Comments