Martin Nievera - Ill Be There For You Chords & Tabs

 

Ill Be There For You Chords & Tabs

Martin Nievera Chords & Tabs

Version: 1 Type: Tab 0 ratings
1 star 2 stars 3 stars 4 stars 5 stars
comments

Ill Be There For You Tab

   
Tabbed By:  	Cerilo Cabacoy Jr. (Country Homes, Tagum City)
Email Add:	sergs_cbi9500msu@yahoo.com


Date:       	March 11, 2010
Tuning:     	Standard, No capo

Comment:	I have been searching for so long across the web in order to
                find a Midi file, a guitar pro tab, or a tab about this song,  
                yet to no avail. Until I finally decided why not create my 
                own tab and share it to the rest of all the lovers of this
                song out there. So here it is! This is my first tab posted in
                the net. Hope you enjoy guys.

		This tab is accurate and practically satisfactory. What
                accompanies the song is actually a keyboard, however, I made 
                this tab especially for the guitar. For this, I have made an
                extensive and careful editions on several occasions to make
                it sound as close as possible as the original audio of the
                song. 

		Dedicated to my crush (so young & lovely K.C.).
		

Intro:

E||---------------------|--7--5----10-------------|--3--2----5-------------|
B||------------------3--|--8--7----------8--------|-------------7----------|
G||---------------0-----|--7----------------------|----------------7-------|
D||---------------------|-------------------2-----|--2--0-------------0----|
A||---------------------|-----------9----------3--|------------------------|
E||---------------------|-------------------------|-------------------3----|


|--7-----------------0-----|--3--0--5------------|
|-----------3--------------|--------7------------|
|--0-----2--------0-----0--|--------7------------|
|--------------------------|--2------------------|
|--------------0-----3-----|-----3---------------|
|-----3--------------------|---------------------|



Verse 1 (Play 2x):


|---------3--7---------3--|
|------3-----8------3-----|
|---0---------------------|
|---0---------------------|
|-------------------------|
|---3---------------------|


|---7-----3---7-------7-5-3--|--5-----3--5-------3--5--|
|---8--3--0---8----3---------|--6--3-----6----3--------|
|---9--0------9--------------|--5--------5-------------|
|--10--------10--------------|-------------------------|
|----------------------------|-------------------------|
|----------------------------|-------------------------|

 
|-----------2--5-----2--5---|
|-----3--3--------3---------|
|--2------------------------|
|--------4--------4---------|
|--0------------------------|
|---------------------------|


Refrain:


|--0--------0----2----3--|-------------------------|
|----------------3-------|--3--------3----------0--|
|-----------0------------|--0--------0-------0-----|
|--------2---------------|----------------0--------|
|-----3-----3------------|--------2----------------|
|------------------------|-----3-------------------|


|--0--------7----5----3--|--------------------------|-------------------------|
|--0-------------7----5--|--------------------0--1--|-----------1----------1--|
|-----------8------------|-----------0--2-----------|--2-----2----------2-----|
|-----2------------------|--------2--------2--------|-----2----------2--------|
|--------2---------------|-----2--------------------|-----0-----0----------0--|
|------------------------|--0-----------0-----------|-------------------------|


|--------3-----2--------|
|--------3-----3--------|
|--2-----2-----2--------|
|-----0-----0-----------|
|--0--------------------|
|-----------------------|

   
Intro for Verse 2:


|--------7--5----10-------|--------3--0--5----------|
|-----3----------------8--|--------------7----------|
|--0----------------------|-----0--------7----------|
|-------------------------|--------0----------2--4--|
|-------------------------|--3----------------------|
|-------------------------|-------------------------|


(Verse 2 has the same pattern as Verse 1)


Intro for Bridge:

|--------------------5--7--|
|--0-----------0--3--------|
|--------0--2--------------|
|-----0-----------------0--|
|--------------------------|
|--------------------------|


Bridge:


|--1--------0-------0------|-------------------------|
|--1--------1---------3----|--0--------0-------------|
|--2-----2--0----0------5--|--0-----0--0-------0-----|
|--3--3-----2--------------|--0--0-----0----------0--|
|-----------3--------------|--2--------2----2--------|
|--------------------------|--3--------3-------------|

[ Tab from: http://www.guitartabs.cc/tabs/m/martin_nievera/ill_be_there_for_you_tab.html ]
|--1--------0-------0-----|-----------------------3--|-----------2-------------|
|--1--------1----------1--|--0-----------0-----3-----|--0-----0--3-------0--3--|
|--2-----2--0----0--------|--------0--2-----0--------|--0--0----------0--------|
|--3--3-----2-------------|-----0--------------------|-------------------------|
|-----------3-------------|--------------------------|----------------------2--|
|-------------------------|--------------------------|--0----------------------|

  
|--0--2--3-------------0--|--0----------------------|--0-----------0--------3--|
|--1--1-----0-------3-----|--1--------1----------1--|--------1--3--------3-----|
|--0-------------0--------|--2-----2-------2--0-----|-----0-----------2--------|
|--2--------0-------------|--2--2-------------------|--------------------------|
|--3----------------------|--0----------------------|--------------------------|
|-------------------------|-------------------------|--------------------------|

 
|--5----------------|
|--7----------------|
|--7----------------|
|-------------------|
|-------------------|
|-------------------|


Interlude:

          
|------7--------7--------|------7-----0--3-------7-5-|
|--8---8--0--0--8--------|--8---8--0--1--3----3------|
|--7---7--------7--------|--7---7--------4-----------|
|----7----0--------------|----7----0-----------------|
|------------------------|---------------------------|
|---------3--------------|---------3-----------------|


|--3--5-----3--5----------|--2--5-----2--5-------5--|------7--------7--------|
|-----6--3-----6-------3--|--------3-------------0--|--8---8--0--0--8--------|
|-----5--------5----2-----|-------------------------|--7---7--------7--------|
|----------------------4--|--------4----------0-----|----7----0--------------|
|-------------------0-----|-------------------------|------------------------|
|-------------------------|-------------------------|---------3--------------|
         I'll be there for  you


|------7-----0--3-------0--|-------------------------|-----------2--3--5--3--5--|
|--8---8--0--1--3----------|--0----------------------|--------3-----------------|
|--7---7--------4----0-----|-----2-----0--2----------|--0--2--------------------|
|----7----0----------0-----|-----3--0-----3----0--4--|--------------------------|
|--------------------------|-------------------------|--------------------------|
|---------3----------------|-------------------------|--------------------------|
                                   I'll be there for    you


(Repeat Refrain)


Intro before next Refrain:

 
|-----------2-----------|-----------0----------0---|
|--------0--3------3----|--------------------------|
|--------0--2-----------|--------0--0-------0------|
|-----0-----------------|-----2----------0---------|
|-----------------------|--3-----------------------|
|--3--------------------|--------------------------|


(Repeat Refrain)


Outro:

     
|--------7--5----10-------|
|-----3--8--7----------8--|
|--0-----7----------------|
|-------------------------|
|-----------------9-------|
|-------------------------|

                                                   
|--0-----3----3-----5----|--7----------------|
|------------------------|--8----------------|
|-----0-------------0----|--7----------------|
|--------2-------4-------|--9----------------|
|--3----------0----------|--10---------------|
|------------------------|-------------------|
                          (C-Form G chord)


---------------------------------------------
(LYRICS & CHORDS OF THE SONG) Follows
---------------------------------------------

Intro:  (G-C [2x] - D)


Verse 1: (G-C-F-D) 2x
        
When you wake up each morning
And you feel like calling
I'll be there for you
When the road seems uncertain
And you can't stop the hurtin'
I'll be there for you


Refrain 1: (C-G/B-Em-Am-Dsus-D-G)
                
When there's no one beside you
I'll be there to guide you
Catch you each time you fall
When the stars won't shine anymore
I'll be there


Verse 2: (G-C-F-D) 2x
              
When the world is unkind
And your dreams they need more time
I'll be there for you
If the rules they keep breaking
And the future is fading
I'll be there for you


Refrain 2: (C-G/B-Em-Am-Dsus-D-G)
         
The rainbow will end
In the palm of your hand
Don't ever let it go
When the stars won't shine anymore
I'll be there


Bridge: (F-C-G [2x] - Em-C-Am-D9-D)

 
Who knows where we'll go
What will tomorrow bring
But we have each other, just hold on tight
We can take to the skies and fly...


I'll be there for you...
I'll be there for you...


(Repeat Refrain 2 Twice)

--------------------------------Nothing else follows----------------
Comments