Martin Kesici - I Chords & Tabs

 

I Chords & Tabs

Martin Kesici Chords & Tabs

Version: 1 Type: Tab 0 ratings
1 star 2 stars 3 stars 4 stars 5 stars
comments

I Tab

   
Martin Kesici - I
Album: So what (2005)

Tuning: standart


Strophe:

e|----0--3---0---5--------2---3---2---5----------------------------------------|
B|-----------------------------------------------------------------------------|
G|-----------------------------------------------------------------------------|
D|-----------------------------------------------------------------------------|
A|-----------------------------------------------------------------------------|
E|-----------------------------------------------------------------------------|


1. Bridge

e|----------------------------------------------------------------------------------------------------------|
B|----------------------------------------------------------------------------------------------------------|
G|----------------------------------------------------------------------------------------------------------|
D|-----------------------------------------------------------------2-------------------------------------3--|
A|-----------------------------------------------------------------2-------------------------------------3--|
E|---3----4-----5---0--------3-----4-----5-----0----------------0-----------------------------------  1-----|
        I    can- not live    don't  wan-   na    die       (beim ersten und           (beim zweiten mal)
                                                                               dritten mal)


e|-----------------------------------------------------------------------------|
B|-----------------------------------------------------------------------------|
G|-----------------------------------------------------------------------------|
D|-----------------------------------------------------------------------------|
A|---3--2--0--2--0-------------------------------------------------------------|
E|----------------------3------------------------------------------------------|
     beim vierten mal


Refrain:

e|----------------------------------------------------------------|
B|----------------------------------------------------------------|
G|---5---7--------------------------------------------------------|
D|---5---7---7-----------------------2------------4----------5----|
A|---3---5---7-----------------------2------------4----------5----|
E|-------------5-----------------------0------------2----------3--|
       I                 I ain't gonna         let you      take me    down


e|----------------------------------------------------------------|
B|----------------------------------------------------------------|
G|---5---7--------------------------------------------------------|
D|---5---7---7-----------------------5------------4----------2----|
A|---3---5---7-----------------------5------------4----------2----|
E|-------------5-----------------------3------------2----------0--|
        I                   i ain't               gonna         lose     my  mind
[ Tab from: http://www.guitartabs.cc/tabs/m/martin_kesici/i_tab.html ]
e|-------------------------------------------------------------------|
B|-------------------------------------------------------------------|
G|---5---7-----------------------------------------------------------|
D|---5---7---7--------------------------2------------4----------5----|
A|---3---5---7--------------------------2------------4----------5----|
E|-------------5--------------------------0------------2----------3--|
     I                      I lost myself    inside   the    under        ground


e|---------------------------------------------------------------------|
B|---------------------------------------------------------------------|
G|------------------------------------------------------------------4--|
D|------------------------------------------------------------------4--|
A|--3-----2------0------------------------------------------------2----|
E|----------------------3---2---0-----------2-------0-------------2----|
    don't  you   ask   me   I    can't      save      the          world

2. Bridge

e|----------------------------------------------------------------------------------------------------------|
B|----------------------------------------------------------------------------------------------------------|
G|----------------------------------------------------------------------------------------------------------|
D|-----------------------------------------------------------------2-------------------------------------3--|
A|-----------------------------------------------------------------2-------------------------------------3--|
E|---3---4-----5---0-------3------4-----5-----0-----------------0-----------------------------------  1-----|
       I    can- not live    don't  wan-   na    die       (beim ersten und           (beim zweiten mal)
                                                                     dritten mal)


e|-----------------------------------------------------------------------------|
B|-----0_5-5---0_5-5--0_5-5--0_5-5---0_5-5-------------------------------------|
G|-----------------------------------------------------------------------------|
D|-----------------------------------------------------------------------------|
A|-----------------------------------------------------------------------------|
E|-----------------------------------------------------------------------------|
     beim vierten mal


Zwischenpart:

      Am        C              D                 Em
e|------------------------2--------------3----------------|
B|----1-------1----------3--------------5-----------------|
G|----2-------0----------2--------------4-----------------|
D|----2-------2----------4--------------2-----------------|
A|----0-------3----------5--------------------------------|
E|--------------------------------------------------------|


e|---------------------------------------------------------------------------|
B|---------------------------------------------------------------------------|
G|------------------------------------------------------------------------4--|
D|------------------------------------------------------------------------4--|
A|--3-------2------0----------------------------------------------------2----|
E|----------------------------3-------2-------0---------2-------0-------2----|
    again again again     again  again   again     again  again  again


tabbed by eMKay2k3
Comments