Martin Grech - Dali Chords & Tabs

 

Dali Chords & Tabs

Martin Grech Chords & Tabs

Version: 1 Type: Tab 0 ratings
1 star 2 stars 3 stars 4 stars 5 stars
comments

Dali Tab

Martin Grech - Dali

E-mail: david@martingrech.net

[Riff 1]
e|----------------------------------------------------------------|
B|----------------------------------------------------------------|
G|----------------------------------------------------------------|
D|----------------------------------------------------------------|
A|--3-----1---------3-----1---------3-----1---------3-----3---2---|
E|2---1-2---3-2-3-2---1-2---3-2-3-2---1-2---3-2-3-2---1-2-1---0---|
                                                          ^   ^
                                                        Palm Muted
[Riff 2]
e|--------------------------------|
B|--------------------------------|
G|--------------------------------|
D|--------------------------------|
A|4-----------4-------4-------4-6-|
E|--3---3---3---3---5---5-3-5-----|


[Riff 3]
e|------------------------------------------------|
B|------------------------------------------------|
G|------------------------------------------------|
D|--------------------------------3---------------|
A|----------------1-0-------0---0-1-------3-------|
E|0-------0-------------3-----------------1-------|


[Riff 4]
e|------------------------------------------------|
B|------------------------------------------------|
G|--------------------------------5-------6-------|
D|--------------------------------5-------6-------|
A|----------------1-0-------0---0-3-------4-------|
E|0-------0-------------3-------------------------|

Intro:

[Riff 1] x4
[Riff 2] x4 -Bass Only
[Riff 2] x4 -Guitar And Bass
[ Tab from: http://www.guitartabs.cc/tabs/m/martin_grech/dali_tab.html ]
Bite down on cables
And choke on the wires
Crowded headroom

[Riff 1] x2
[Riff 3] x4 (Lock me away, I'm not insane)
[Riff 2] x4

A feeding frenzy
A box for my appetite
Strobe my vision

[Riff 3] x2 (Lock me away)
[Riff 4]    (I'm not insane)
[Riff 3] x2 (It's me again)

e|------------------------------------------------------------------------------------|
B|------------------------------------------------------------------------------------|
G|-----------------------------------------------------------------------------5------|
D|2---2---2---2---2---2---2---2---2-----3---3-----2---2---2---2---2---2---2----5------|
A|2---2---2---2---2---2---2---2---2-----1p0-1p0---2---2---2---2---2---2---2----3------|
E|0---0---0---0---0---0---0---0---0---0-----------0---0---0---0---0---0---0-----------|

Fast Part:

e|----------------------------------------------------------------|
B|----------------------------------------------------------------|
G|----------------------------------------------------------------|
D|--------------------------------------------------------3---2---|
A|--3-----1---------3-----1---------3-----1---------3-----3---2---|
E|2---1-2---3-2-3-2---1-2---3-2-3-2---1-2---3-2-3-2---1-2-1---0---|

e|----------------------------------------------------------------|
B|----------------------------------------------------------------|
G|----------------------------------------------------------------|
D|----------------------------------------------------------------|
A|--3-----1---------3-----1---------3-----1---------3-----3---2---|
E|2---1-2---3-2-3-2---1-2---3-2-3-2---1-2---3-2-3-2---1-2-1---0---|
Comments