Martial Law - Pisstank Chords & Tabs

 

Pisstank Chords & Tabs

Martial Law Chords & Tabs

Version: 1 Type: Tab 0 ratings
1 star 2 stars 3 stars 4 stars 5 stars
comments

Pisstank Tab

   
Martial Law - Pisstank
tabbed by brandon macleod

heres the unaccompanied intro solo (all the leads are in Em pentatonic)

E--15^-14-12-----------------------------------------
B------------15^-15-14-15-14-12-12^-12---------------
G-------------------------------14^-14--14p12----12--
D---------------------------------------------14-----
A----------------------------------------------------
E----------------------------------------------------

E----------------------------------------------------
B----------------------------------------------------
G--14p-12--------------------------------------------
D------- 14p-12--------------------------------------
A------------- 14 12 --------------------------------
E--------------------12------------------------------

then the band comes in and the main intro solo plays

E--------------------------------------------12-12----
B--------------------------------------12-15---------
G-------------12-14-14p12-12-12--12-14---------------
D-------12-14----------------------------------------
A-12-14----------------------------------------------
E----------------------------------------------------

E-12-15-15-15p12-12-12---12-15-15-15p12-12-12--------
B------------------------{ this part abunch of times}
G----------------------------------------------------
D----------------------------------------------------
A----------------------------------------------------
E----------------------------------------------------
repeat these bends
E-12^-12^-12^--solo ends with 12^--------------------
B-15^-15^-15^-----------------15^-15^-12-12-12-------
G-          ----------------------14^-12-14-12-------
D----------------------------------------------------
A----------------------------------------------------
E----------------------------------------------------

E-12^------17p15----17p15----17^l-12^-----------------
B-15^-15^--------17-------17----l-15^-15^-12-12-12----
G-----14^-----------------------l-----14^-12-14-12----
D-------------------------------l{play this part twice
A-------------------------------l---------------------
E----------------------------------------------------
[ Tab from: http://www.guitartabs.cc/tabs/m/martial_law/pisstank_tab.html ]
1st verse riff - very muddy, use lots of distortionand
heavy muting  *EXACT NUMBER OF STRUMS NOT SHOWN*

E----------------------------------------------------
B----------------------------------------------------
G-9X---7X-----5X-------------------------------------
D-9X---7X-7X--5X---play twice------------------------
A-7X---5X-7X--3X-------------------------------------
E---------5X-----------------------------------------

Chorus riff(yeeeeah etc.)exact strumming not shown

E----------------------------------------------------
B----------------------------------------------------
G-999--12-7--5555-7777---999-12-7---9-7-5-------------
D-999--12-7--5555-7777---999-12-7---9-7-5------------
A-777--10-9--3333-5555---777-10-9---7-5-3-------------
E----------------------------------------------------

transition to 2nd verse

E----------------------------------------------------
B----------------------------------------------------
G----------------------------------------------------
D----------------------------------------------------
A-7-7-9-10p9-10p9-5-5-9-10p9-10p9-3-3-9-10p9-10p9-7--
E----------------------------------------------------

2nd verse

E----------------------------------------------------
B----------------------------------------------------
G----------------------------------------------------
D----------------------------------------------------
A-7777-10-10-9-9-5555-10-10-9-9-3333-10-10-9-9-77777-
E----------------------------------------------------

outro riff (modified chorus riff)

E----------------------------------------------------   SONG ORDER:
B----------------------------------------------------  1st intro solo
G-9-12/11 7-12/11-5-12/11--12/11-12/11---------------  2nd intro solo
D-9-12/11 7-12/11-5-12/11--12/11-12/11---------------  1st verse riff
A-7-10/9- 5-10/9--3-10/9---10/9--10/9----------------  chorus riff
E----------------------------------------------------  last part of 2nd solo
                                                         transition
thats about it. For the outro solo just impovise with     2nd verse
Em pentatonic, i'm sure not figuring it out. As always,   chorus
for the rhythm listen to the song,and email comments to   2nd verse riff
x_nephilim_x@hotmail.com                                  modified chorus riff(w/outro solo)
Comments