Martha And The Vandellas - Heatwave Chords & Tabs

 

Heatwave Chords & Tabs

Martha And The Vandellas Chords & Tabs

Version: 1 Type: Bass Tab

Heatwave Bass Tab

   
"Heatwave"
Martha & The Vandellas

Transcribed by Tim Carter

Jamerson plays an upright bass on this song.
**Listen to the keyboard during the verse to get the timeing**

Intro:
   A
G|-----------------|-----------------|
D|-----------------|-----------------|
A|-0-0-0-0-0-0-0-0-|-0-0-0-0-1-3-1---|
E|-----------------|---------------3-|

   F   G   C 
G|-----------------|
D|-----------------|
A|---------3-3-3-3-|
E|-1-1-3-3---------| x2

   F   G   Ab  Bb    Eb 
G|-----------------|-----------------|
D|-----------------|-----------------|
A|-----------------|-6-6-6-6-6-6-6---|
E|-1-1-3-3-4-4-6-6-|-----------------|

G|---------|
D|---------|
A|-1-3-1---|
E|-------3-|

Verse:
   F   G   C 
G|-----------------|
D|-----------------|
A|---------3-3-3-3-|
E|-1-1-3-3---------| x2
[ Tab from: http://www.guitartabs.cc/tabs/m/martha_and_the_vandellas/heatwave_btab.html ]
   F   G   Ab  Bb    Eb 
G|-----------------|-----------------|-----------------|
D|-----------------|-----------------|-----------------|
A|-----------------|-6-6-6-6-6-6-6-6-|-6-6-6-6-6-6-6---|
E|-1-1-3-3-4-4-6-6-|-----------------|-----------------|

G|---------|
D|---------|
A|-1-3-1---|
E|-------3-|

^^Play that until the sax solo

Sax solo:

   F   G   C 
G|-----------------|
D|-----------------|
A|---------3-3-3-3-|
E|-1-1-3-3---------| x2

   F   G   Ab  Bb    Eb 
G|-----------------|---|
D|-----------------|---|
A|-----------------|-6-|
E|-1-1-3-3-4-4-6-6-|---|

G|---------|
D|---------|
A|-1-3-1---|
E|-------3-|

Play this until the end of the song:

   F   G   C 
G|-----------------|
D|-----------------|
A|---------3-3-3-3-|
E|-1-1-3-3---------| x2

   F   G   Ab  Bb    Eb 
G|-----------------|-------|
D|-----------------|-------|
A|-----------------|-6-6-6-|
E|-1-1-3-3-4-4-6-6-|-------|

G|---------|
D|---------|
A|-1-3-1---|
E|-------3-|