Mars Volta - Lvia Lviaquez Chords & Tabs

 

Lvia Lviaquez Chords & Tabs

Mars Volta Chords & Tabs

Version: 1 Type: Bass Tab

Lvia Lviaquez Bass Tab

MARS VOLTA- L'VIA L'VIAQUEZ

Tuning- Standard

okay so when the mad guitar solo in this song starts you go to this
-----------------------------|
-----------------------------|
-------1---------------------|
-1-1333--313-----------------|

do that through the verses then towards the end of the verse theres a little

--------------------------------|          when he goes YEAAAH YEAAAAAAAH YEYEAHAAAH
---------------------- 4x then -|
----------------------         -|
-3113-3-13313-3--------        -|
-0h3--6--0----------------------|

then the chorus is
-----------------------------|
-----------------------------|
-----------------------------|
-33--66-00---55-33-----------| you do that twice just before he goes
                              "Blackmailed she fell off every mountain"
[ Tab from: http://www.guitartabs.cc/tabs/m/mars_volta/lvia_lviaquez_btab.html ]
do that until he goes "I wont forget who im lookin for.. oh mother help me Im looking for"
then back to
-----------------------------|
-----------------------------|
-------1---------------------|
-1-1333--313-----------------| then do that until


------------------------|
------------------------|   another 4 times then
------------------------|
-3113-3-13313-3---------|

-----------------------------|
-----------------------------|
-----------------------------|
-0h3--6--0-------------------|

back to chorus

-----------------------------|
-----------------------------|
-----------------------------|
-33--66-00---55-33-----------|

then after that there is a little interlude bit which is just the

----------------------|
----------------------|
----------------------|
-3113-3-13313-3-------| X Heaps

then after youve done that for ages of the song there is a mad drumming bit
then back to

-----------------------------|
-----------------------------|
-----------------------------|
-0h3--6--0-------------------|

then chorus

-----------------------------|
-----------------------------|
-----------------------------|
-33--66-00---55-33-----------|

that song is fantastic... Please rate this tab.. I wanna know how i did