Mars Volta - Inertiatic Esp Chords & Tabs

 

Inertiatic Esp Chords & Tabs

Mars Volta Chords & Tabs

Version: 3 Type: Tab 0 ratings
1 star 2 stars 3 stars 4 stars 5 stars
comments

Inertiatic Esp Tab

Ok these are the solo parts that the other tabs are missing.
[ Tab from: http://www.guitartabs.cc/tabs/m/mars_volta/inertiatic_esp_tab_ver_3.html ]
|-10----10----------------------12--10---10-------------12------12-15--10-|
|----9---------12------9-8-------------9----11---------------12-----------|
|-----------11-----10-------10------------------10--------12--------------|
|----------------------------------------------------9--------------------|
|-------------------------------------------------------------------------|
|-------------------------------------------------------------------------|

And then the part at the end
|-------------2-3-2-----2-------6--------|
|----3-2------------------3-------7-0----|
|--------2----------------------------x6-|
|----------2--------0--------2-----------|
|-2--------------------------------------|
|----------------------------------------|

There you go.
Comments