Mars Volta - Inertiatic Esp Chords & Tabs

 

Inertiatic Esp Chords & Tabs

Mars Volta Chords & Tabs

Version: 2 Type: Bass Tab 0 ratings
1 star 2 stars 3 stars 4 stars 5 stars
comments

Inertiatic Esp Bass Tab

----------------------------------PLEASE NOTE--------------------------------
This file is the author's own work and represents their interpretation ofthe
song. You may only use this file for private study, scholarship,or research.
-----------------------------------------------------------------------------
Chorus
|-----------------------------------|
|-2-2-2-2--0-0-0-0--5-5-5-5---------|
|---------------------------2-2-5-2-|
|-----------------------------------| x4

Verse
Riff 1
|------------------------|
|-2-2--0-0--4-4----------|
|----------------2-2-5-2-|
|------------------------|

Riff 2
|------------------------|
|-2-2--0-0---------------|
|-----------4-4--2-2-5-2-|
|------------------------|

Alternate between these two starting on the first riff for a total of 6 riffs, then end 
verse with this, then falling back directly into the revised chorus:
[ Tab from: http://www.guitartabs.cc/tabs/m/mars_volta/inertiatic_esp_btab_ver_2.html ]
|-----------------|
|-2--0--5---------|
|----------2-2-5-2|
|-----------------|

Here he plays the chorus again for 6 riffs.

Alternate between the two verse riffs here, starting and ending on Riff 1, and playing 
verse for a total of 7 riffs.

Here you play the chorus another 6 times, tying the end of the last chorus into this riff:

Refrain
|---------------------------|
|-------------2-2-2-4-4-0-0-|
|-2-2-2-5-5-5---------------|
|---------------------------|

First play this 4 times ending on the G#, then play it again 16 times.

After the refrain the guitar does it's 3 chords, and you go back into the chorus for 4 riffs.

He ends the song playing this with the guitar and the snare drum:

Ending
|-------------------------------|
|-2-2-2-2---------------2-2-2-2-|
|------------2-2-5-2------------|
|-------------------------------|

The song goes like this:

Chorus x4
Verse x6
Chorus x6
Verse x7
Chorus x6
Refrain x4
Refrain x16
Chorus x4
Ending
Comments