Mars Volta - Eunuch Provocateur Chords & Tabs

 

Eunuch Provocateur Chords & Tabs

Mars Volta Chords & Tabs

Version: 1 Type: Tab 0 ratings
1 star 2 stars 3 stars 4 stars 5 stars
comments

Eunuch Provocateur Tab

   
KEY:
h=hammer on    ~=let note ring
p=pull off     /=slide up
^=bend
 

INTRODUCTION SECTION:
|-----------|--------------|
|-----------|--------------|
|-----0--4~-|-----0--4~----|
|-0h2----4~-|-0h2----4~----|
|-----------|--------------|
|-----------|-----------0~-|
 
After the bass comes in, play this modified version:
 
|--------------------|-------------------|
|--------------------|---------------0---|
|-----0--4~--0---0---|-----0--4--------0-|
|-0h2----4~----4---4-|-0h2----4----------|
|--------------------|-------------------|
|--------------------|-----------0-------|
 
and then after the drums come in, he adds even more
to that, but it varies a lot. Experiment with some
of these here, Just to give you an idea of some of
the things that he does:
 
variation 1:
|-------------------|-----------------------|
|-------------------|------------------0----|
|-----0--4~-----0---|-----0--4~------0---0--|
|-0h2----4~---4---0-|-0h2----4~----0--------|
|-------------------|-----------------------|
|-------------------|----------0~-----------|
variation 2:
|------------------|-----------------------|
|------------------|-------------------5---|
|-----0--4~----0---|-----0--4~-------0---4-|
|-0h2----4~--4---4-|-0h2----4~-----4-------|
|------------------|-----------------------|
|------------------|-----------0~----------|
variation 3:
|------------0/77-12-|---------------------|
|--------------------|----------------5----|
|-----0--4~----------|-----0--4~----4---4--|
|-0h2----4~----------|-0h2----4~-----------|
|--------------------|---------------------|
|--------------------|-----------0~--------|
 
[ Tab from: http://www.guitartabs.cc/tabs/m/mars_volta/eunuch_provocateur_tab.html ]
CHORUS SECTION:
part a:
|--------12----15--|
|-----------14-----|
|--0--0------------|
|--9--9------------|
|-10-10------------|
|------------------|
part b:
|--------12-------|
|-----------14----|
|--0--0--------12-|
|--9--9-----------|
|-10-10-----------|
|-----------------|
part c:
|-----------|
|-------12^-|
|-12-14-----|
|-----------|
|-----------|
|-----------|
 
every time that the chorus is played in this
song, its sequence goes; parts a,b,a,c.
 
verse:
|-15----------12----12------------------|
|---12-----14---------------------------|
|-----12-13----12-13---0h12-14-15p14-12-|
|---------------------------------------|
|---------------------------------------|
|---------------------------------------|
 
|--------------------------------------------|
|--------------------------------------------|
|-14-12---12--12-----------------------------|
|-------14--14---14-12-14-12---12---------12-|
|----------------------------14--14-12-14----|
|--------------------------------------------|
 
pre-chorus one:
|-----------------------------------|
|------------------------12-14-15-0-|
|-----------------12-14-------------|
|-------12-14^-12-------------------|
|-12-14-----------------------------|
|-----------------------------------|
 
interlude
part a:
|-------|-------|
|-------|-------|
|-------|-------|(play palm-muted)
|-------|-------|
|-2-----|-------|
|---4-5-|-2-4-0-|
 
part b:
|-5-7-5-0h3-5-3-----|-5-7-5-0h3-5-3p0-|
|---------------3h4-|-----------------|
|-------------------|-----------------|
|-------------------|-----------------|
|-------------------|-----------------|
|-------------------|-----------------|
 
ending of interlude:
|-0-3-2-|-7-5-2-|------7-|----------|
|-------|-------|----7---|------8-7-|
|-------|-------|--------|----------|
|-------|-------|-10-----|-9-10-----|
|-------|-------|--------|----------|
|-------|-------|--------|----------|
 
|-7-----|-7------|----------|--------|
|---8-7-|---10-8-|------8-7-|-10-7-8-|
|-------|--------|----------|--------|
|-------|--------|-9-10-----|--------|
|-------|--------|----------|--------|
|-------|--------|----------|--------|
 
|--------|-------|
|----8-7-|-------|
|--------|-------|
|-10-----|-------|
|--------|-------|
|--------|-14/0--|
 
 
 
Intro(0:00, play the modified version at 0:20,
      and the next version at 0:33)
Chorus, 1:34
Noise Section, 1:54
Verse, 2:01
Chorus, 2:28
Verse, 2:48
noise section, 3:14
pre-chorus, 3:28
chorus, 3:41
interlude a, 4:10
interlude b, 4:25
end interlude, 4:38
chorus, 4:54 play until 5:33
-----------------------------------BASS---------------------------------
Chorus bass
G  :----------------|----------------|----------------|----------------|
D  :----------------|----------------|----------------|-----9----------|
A  :----------------|/7--7-----------|-3--3-----------|-2-0------------|
x 2
E  :-0--0-----------|----------------|----------------|----------------|
 
Verse bass
G  :----------------|----------------|
D  :------5---------|----------------|
A  :7-5-7----7-5----|----------------| x lots
E  :----------------|-5-5-----7-7----|
 
[last time before chorus, sometimes other variations]
G  :----------------|----------------|
D  :------5---------|-7-5-7-9-10-12--|
A  :7-5-7----7-5----|----------------|
E  :----------------|----------------|
 
Brigdge bass
G  :----------------|----------------|
D  :/9--5--7--------|5--7------------|
A  :----------------|------7---------| x lots
E  :----------------|----------------|
Comments