Mars Volta - Cicatriz Esp Chords & Tabs

 

Cicatriz Esp Chords & Tabs

Mars Volta Chords & Tabs

Version: 1 Type: Tab 0 ratings
1 star 2 stars 3 stars 4 stars 5 stars
comments

Cicatriz Esp Tab

Request me:daddycool2@arcor.de

Artist: Mars Volta
Title: Cicatriz ESP
Album: De-Loused in the Comatorium


 INTRO

|--------------------------------|-----------------------------------------|
|--------------------------------|-----------------------------------------|
|--------------------------------|-----------------------------------------|
|--------------------------------|-----------------------------------------|
|-7-7-7-7-5-7---7-7-7-7-5-7------|-----------------------------------------|
|--------------------------------|-5-5-5-5-3-5---5-5-5-5-3-5---------------|


                              
|-----------------------------0--|-----------------------------0-----------|
|-----------------------------4^-|-----------------------------4^----------|
|--------------------------------|-----------------------------------------|
|--------------------------------|-----------------------------------------|
|-7-7-7-7-5-7---7-7-7-7-5-7------|-----------------------------------------|
|--------------------------------|-5-5-5-5-3-5---5-5-5-5-3-5---------------|

 VERSE
[ Tab from: http://www.guitartabs.cc/tabs/m/mars_volta/cicatriz_esp_tab.html ]
|--------------------------------|--------0-----0----0----0----------------|
|-------0------------------------|--------4-----5----7----8----------------|
|-----0---0----------------------|-----------------------------------------|
|---2-------2-0-3-2-0------------|-----------------------------------------|
|-3-------------------2-3--------|-----------------------------------------|
|--------------------------------|-----------------------------------------|

 CHORUS

|--0-0-0-------------------------|
|--4-4-5-0-0---------------------|
|--------5-4-0-------------------|
|------------5-------------------|
|--------------------------------|
|--------------------------------|

 BRIDGE

|----------10--------------------|-----------------------------------------|
|-12----------10---12-----12^----|----12-------------------------------12--|
|--------------------------------|-9--------14---12-------9----------------|
|--------------------------------|-----------------------------------------|
|--------------------------------|-----------------------------------------|
|--------------------------------|-----------------------------------------|



|-10--12---------------19--------|-----------------------------------------|
|--------10----12----------------|-------12--------------------------------|
|--------------------------------|--9---------14---12------9---------------|
|--------------------------------|-----------------------------------------|
|--------------------------------|-----------------------------------------|
|--------------------------------|-----------------------------------------|

 END CHORUS

|--0-0-0-------------------------|		|-0-|
|--4-4-5-0-0---------------------|		|-5-|
|--------5-4-0-------------------|		|-x-| End Chord
|------------5-------------------|		|-x-|
|--------------------------------|		|-7-|
|--------------------------------|		|-x-|
Comments