Mars Volta - A Plague Upon Your Hissing Chords & Tabs

 

A Plague Upon Your Hissing Chords & Tabs

Mars Volta Chords & Tabs

Version: 1 Type: Bass Tab 0 ratings
1 star 2 stars 3 stars 4 stars 5 stars
comments

A Plague Upon Your Hissing Bass Tab

The Mars Volta - A Plague Upon Your Hissing
 
Tabbed by JazfYusion, aka Crazy Karl, aka schmoozer, aka Cold Silence

You all know the basic symbols:
= - let ring
x - ghost note
b - bend
h - hammer-on
p - pull-off
..- goes on for awhile

  Intro  Verse         x2
G|  ---|----------------|----------------|----------------|----------
D|  ---|----------------|----------------|----------------|----------
A|  -7=|--------------77|--------------7=|--------------77|----------
E|..---|0-x0-x0-x0------|0-x0-x0-x0------|0-x0-x0-x0------|0-x0-x0-x0
[ Tab from: http://www.guitartabs.cc/tabs/m/mars_volta/a_plague_upon_your_hissing_btab.html ]
  Pre-Chorus        x4 
G|--------------------|
D|--------------------|
A|---7=-7=---7=-7=--7-|
E|000--0--000--0--00--|  
              
  Chorus                      x4
G|------------------------------|----------------|
D|------------------------------|----------------|
A|------------------------------|----------------|
E|6==6---6=6----00000003=3333333|-3333333b3333333|

G|------------------|----------------|--
D|------------------|----------------|--
A|------------------|----------------|2=...
E|-00000003=33333333|-3333333b3333333|--

Now repeat verse twice, Pre-Chorus, & after 
the Chorus leave off final B & add on... 
G|-----------------   |
D|-----------------   |
A|-----------------   |
E|00000000=0000000-...|

Now the bridge I'm skeptical about, I think he's going...
                 x8
G|--------|--------|
D|-------4|-------4|<-He may be hitting F on that note
A|------1-|------1-|
E|1====1--|0====0--|

Now repeat the Chorus with its add-on then play an ending B, like the 
first Chorus where he slides up an octave a little later before the 
outro, which I don't have any idea how to tab.  I should have it 
figured out within the next week, e-mail me with comments, questions
or suggestions.
Comments