Maroon 5 - This Love (5 Strings Bass) Chords & Tabs

 

This Love (5 Strings Bass) Chords & Tabs

Maroon 5 Chords & Tabs

Version: 1 Type: Bass Tab 2 ratings
1 star 2 stars 3 stars 4 stars 5 stars
comments

This Love (5 Strings Bass) Bass Tab

Title: THIS LOVE
Artist Maroon 5
Album: Song about Jane

For 5 Strings Bass
Tabbed by Kenny Villafana (ynnek2v@yhoo.com)

Note Important: 
This theme must be played with a 5 strings Bass Only (for better results)

Intro:

G  :-----------------------------|
D  :-----------------------------|
A  :-----------------------------|
E  :-----------------------------|
B  :-0-1---8-7-6----6-5-4--------|

G  :----------------------------------------|
D  :----------------------------------------|
A  :---1-2---2-5-3---5-4-3---3-2-1----------|
E  :-3--------------------------------------|
B  :----------------------------------------|

Verse:

G  :----------------------------------------|
D  :----------------------------------------|
A  :---1-2---2-5-3---5-4-3---3-2-1----------|
E  :-3--------------------------------------|
B  :----------------------------------------|

G  :----------------------------------------|
D  :----------------------------------------|
A  :---1-2---2-5-3---5-4-3---3-2-1----------|
E  :-3--------------------------------------|
B  :----------------------------------------|

Chorus:

G  :----------------------------------------|
D  :----------3--------------1---1-2--------|
A  :-3-3-3-5-------3-5-1-1-3----------------|
E  :----------------------------------------|
B  :----------------------------------------|


G  :----------------------------------------|
D  :----------3--------------1---1-2--------|
A  :-3-3-3-5-------3-2-1-1-3----------------|
E  :----------------------------------------|
B  :----------------------------------------|

G  :--------------------3-3-------------------|
D  :----------3----3-5------5--- 1-1-2--------|
A  :-3-3-3-5----------------------------------|
E  :------------------------------------------|
B  :------------------------------------------|

G  :----------------------------------------|
D  :----------3--------------1---1-2--------|
A  :-3-3-3-5-------3-2-1-1-3----------------|
E  :----------------------------------------|
B  :----------------------------------------|

G  :----------------------------------------|
D  :----------3-6-----3-5------3-2----------|
A  :-3-3-3-5--------5--------------2--------|
E  :----------------------------------------|
B  :----------------------------------------|
[ Tab from: http://www.guitartabs.cc/tabs/m/maroon_5/this_love_5_strings_bass_btab.html ]
Back to the intro pattern
G  :----------------------------------------|
D  :----------------------------------------|
A  :---1-2---2-5-3---5-4-3---3-2-1----------|
E  :----------------------------------------|
B  :----------------------------------------|

Repeat Verse and Chorus

Interlude:

G  :----------------------------------------|
D  :-3-3-3---2-2-2---------------1-2-3------|
A  :----------------5slide2-2-3-------------|
E  :----------------------------------------|
B  :----------------------------------------|

G  :---------------------------------------------|
D  :-3-3-3---2-2-2-------------------------------|
A  :----------------5slide2-2-3---3-3-3slide10---|
E  :---------------------------------------------|
B  :---------------------------------------------|

Chorus:

G  :----------------------------------------|
D  :----------3--------------1---1-2--------|
A  :-3-3-3-5-------3-5-1-1-3----------------|
E  :----------------------------------------|
B  :----------------------------------------|


G  :----------------------------------------|
D  :----------3--------------1---1-2--------|
A  :-3-3-3-5-------3-2-1-1-3----------------|
E  :----------------------------------------|
B  :----------------------------------------|

G  :--------------------3-3-------------------|
D  :----------3----3-5------5--- 1-1-2--------|
A  :-3-3-3-5----------------------------------|
E  :------------------------------------------|
B  :------------------------------------------|

G  :----------------------------------------|
D  :----------3--------------1---1-2--------|
A  :-3-3-3-5-------3-2-1-1-3----------------|
E  :----------------------------------------|
B  :----------------------------------------|

G  :----------------------------------------|
D  :----------3-6-----3-5------3-2----------|
A  :-3-3-3-5--------5--------------2--------|
E  :----------------------------------------|
B  :----------------------------------------|

End:
G  :----------------------------------------|
D  :---------3-3-x-----------1-2------------|
A  :-3-3-x----------1-1-x-------------------|
E  :----------------------------------------|
B  :----------------------------------------|

G  :----------------------------------------|
D  :----------6-6---5-5---3-2---------------|
A  :-3-3-x---------------------2------------|
E  :----------------------------------------|
B  :----------------------------------------|


Play and enjoin......!!!!
























Comments