Maroon 5 - The Sun Chords & Tabs

 

The Sun Chords & Tabs

Maroon 5 Chords & Tabs

Version: 1 Type: Tab 0 ratings
1 star 2 stars 3 stars 4 stars 5 stars
comments

The Sun Tab

   
We haven't got any tabs on The Sun yet but here it is:

Intro:
(Drums)

  Am       Am       C         G
e|------------------------------------------------------------------------|
B|----1--------1--------1-----3-----0-------------------------------------|
G|--2---2----2---2----0---0-------0-------(x2)----------------------------|
D|------------------------------------------------------------------------|
A|0--------0--------3-----------------------------------------------------|
E|------------------------------3-----------------------------------------|

Verse:
(First part the guitar plays nothing)
After school, walking home
Fresh dirt under my fingernails and

The guitar starts playing again: (play it quite fast)
  Am       Am       C        C        D        D        D        D
e|------------------------------------------------------------------------|
B|----1--------1--------1--------1--------3--------3--------3--------3----|
G|--2---2----2---2----0---0----0---0----2---2----2---2----2---2----2---2--|
D|------------------------------------0--------0--------0--------0--------|
A|0--------0--------3--------3--------------------------------------------|
E|------------------------------------------------------------------------|

I can smell hot asphalt
Cars screetch to at halt to let me pass
And I can not remember
What life was like throug photographs
Trying to recreate 
Images life gives us from our past

(Play slower again)
  Am       C         D         D
e|-----------------------------2------------------------------------------|
B|----1--------1---------3-----------3------------------------------------|
G|--2---2----0---0-----2---2-------2--------------------------------------|
D|-------------------0-----------0----------------------------------------|
A|0--------3--------------------------------------------------------------|
E|------------------------------------------------------------------------|

And sometimes it's a sad song
But I...

  F   C   Am  G
e|1---3---5---3-----------------------------------------------------------|
B|1---5---5---3-----------------------------------------------------------|
G|2---5---5---4--------(x4)-----------------------------------------------|
D|3---5---7---5-----------------------------------------------------------|
A|3---3---7---5-----------------------------------------------------------|
E|1-------5---3-----------------------------------------------------------|

Chorus:
[ Tab from: http://www.guitartabs.cc/tabs/m/maroon_5/the_sun_tab.html ]
Cannot forget, refuse to regret
So glad i met you ans
Take my breath away, make everyday
Worth all of the pain that i have gone through
And mama, i've been cryin' 'cause things ain't how they used to be
She said:

  F   E
e|1---0-------------------------------------------------------------------|
B|1---0-------------------------------------------------------------------|
G|2---1-------------------------------------------------------------------|
D|3---2-------------------------------------------------------------------|
A|3---2-------------------------------------------------------------------|
E|1---0-------------------------------------------------------------------|

The battles almost won
And we're only several miles from the sun.

Am       Am       C         G
e|-------------------------------------------------------------------------|
B|----1--------1--------1-----3-----0--------------------------------------|
G|--2---2----2---2----0---0-------0-------(x2)-----------------------------|
D|-------------------------------------------------------------------------|
A|0--------0--------3------------------------------------------------------|
E|------------------------------3------------------------------------------|

Verse:

Walking on down my street
I see people i wont ever meet
Think of her, take a breath 
Feel the beat in the rythm of my steps
And sometimes it's a sad song.
But I:

Play chorus again :)

Bridge:
 Am   C  G6   D
e|0---0---0---3-----------------------------------------------------------|
B|1---1---0---3-----------------------------------------------------------|
G|2---0---0---2------(x2)-------------------------------------------------|
D|2---2---0---0-----------------------------------------------------------|
A|0---3---2---------------------------------------------------------------|
E|--------3---------------------------------------------------------------|

The rythm of her conversation
The perfection of her creation
The sex the slipped into my coffee
The way she felt when she first saw me

Hate to love and love to hate her
Like a broken record-player
Back and forth and here and gone
and on and on and on and on

Play chorus again and after that just keep going like the intro:

Am       Am       C         G
e|------------------------------------------------------------------------|
B|----1--------1--------1-----3-----0-------------------------------------|
G|--2---2----2---2----0---0-------0---------------------------------------|
D|------------------------------------------------------------------------|
A|0--------0--------3-----------------------------------------------------|
E|------------------------------3-----------------------------------------|

Im tryin' to work out the solo but i'm not finish... Maybe i'll write it some day
Comments