Maroon 5 - She Will Be Loved Chords & Tabs

 

She Will Be Loved Chords & Tabs

Maroon 5 Chords & Tabs

Version: 5 Type: Tab 0 ratings
1 star 2 stars 3 stars 4 stars 5 stars
comments

She Will Be Loved Tab

---------------------------------------------------------------------
	            Maroon 5 - She Will Be Loved
---------------------------------------------------------------------
Tabbed by: MusicWanderer
Email: -
Tuning: Standard (EADGBE)

Main Riff
E-----------------|-----------------|-----------------|---------------|
B-----------------|-----------------|----8------------|---------------|
G-----8-8-8-8-----|------7-7-----7--|----8-8-8-8------|-----7-7-----7-|
D-----------------|----------6------|-----------------|----------6----|
A-----------------|----8-------8----|-----------------|---8--------8--|
E--8------8-8-----|-6------6--------|--8-----8-8------|-6-----6-------|

Chorus
E-----------------|-----------------|
B-----------------|-----------------|
G--8-8-8----------|-----------------|
D--8-8-8---8-8-8--|-10-10-10--8-8-8-|
A--6-6-6---8-8-8--|-10-10-10--8-8-8-|
E----------6-6-6--|-8--8--8---6-6-6-|
I don't mind......, out on your.....,

E-----------------|-----------------|
B-----------------|-----------------|
G--8-8-8----------|-----------------|
D--8-8-8---8-8-8--|-10-10-10--6-6-6-|
A--6-6-6---8-8-8--|-10-10-10--6-6-6-|
E----------6-6-6--|-8--8--8---4-4-4-|
Look for the......, ask her if......,

E-----------------|-----------------|
B-----------------|-----------------|
G--8-8-8----------|-----------------|
D--8-8-8---8-8-8--|-10-10-10--6-6-6-|
A--6-6-6---8-8-8--|-10-10-10--6-6-6-|
E----------6-6-6--|-8--8--8---4-4-4-|
And she will be loved, she will be loved.
[ Tab from: http://www.guitartabs.cc/tabs/m/maroon_5/she_will_be_loved_tab_ver_5.html ]
Repeat Main Riff
E-----------------|-----------------|-----------------|---------------|
B-----------------|-----------------|----8------------|---------------|
G-----8-8-8-8-----|------7-7-----7--|----8-8-8-8------|-----7-7-----7-|
D-----------------|----------6------|-----------------|----------6----|
A-----------------|----8-------8----|-----------------|---8--------8--|
E--8------8-8-----|-6------6--------|--8-----8-8------|-6-----6-------|

Repeat Chorus
E-----------------|-----------------|
B-----------------|-----------------|
G--8-8-8----------|-----------------|
D--8-8-8---8-8-8--|-10-10-10--8-8-8-|
A--6-6-6---8-8-8--|-10-10-10--8-8-8-|
E----------6-6-6--|-8--8--8---6-6-6-|
I don't mind......, out on your.....,

E-----------------|-----------------|
B-----------------|-----------------|
G--8-8-8----------|-----------------|
D--8-8-8---8-8-8--|-10-10-10--6-6-6-|
A--6-6-6---8-8-8--|-10-10-10--6-6-6-|
E----------6-6-6--|-8--8--8---4-4-4-|
Look for the......, ask her if......,

E-----------------|-----------------|
B-----------------|-----------------|
G--8-8-8----------|-----------------|
D--8-8-8---8-8-8--|-10-10-10--6-6-6-|
A--6-6-6---8-8-8--|-10-10-10--6-6-6-|
E----------6-6-6--|-8--8--8---4-4-4-|
And she will be loved, she will be loved.

E-----------------|-----------------|
B-----------------|-----------------|
G--8-8-8----------|-----------------|
D--8-8-8---8-8-8--|-10-10-10--6-6-6-|
A--6-6-6---8-8-8--|-10-10-10--6-6-6-|
E----------6-6-6--|-8--8--8---4-4-4-|
And she will be loved, she will be loved.

Bridge                                  
E-----------------|-----------------|          |---|
B-----------------|-----------------|          |---| 
G--5-5-5--3-3-3---|--5-5-5--3-3-3---| End with |---|
D--5-5-5--3-3-3---|--5-5-5--3-3-3---|    ~     |-6-|
A--3-3-3--1-1-1---|--3-3-3--1-1-1---|          |-6-|
E-----------------|-----------------|          |-4-|
I know where you hide, alone in your car
Know all of the things that make you who you are
I know that goodbye means nothing at all
Comes back and begs me to catch her every time she falls

Repeat Riff, Chorus.
Comments