Maroon 5 - She Will Be Loved Chords & Tabs

 

She Will Be Loved Chords & Tabs

Maroon 5 Chords & Tabs

Version: 3 Type: Bass Tab 0 ratings
1 star 2 stars 3 stars 4 stars 5 stars
comments

She Will Be Loved Bass Tab

this is "she will be loved" by "marron 5" enjoy.....
this is my first tab so be a little nice!!! i got this tab on the live version. but i
think its the same in the radio version.
(standard tuning)
intro:verse:
g--------------------------------------------------------------|play until d
d--------------------------------------------------------------|phrase
a--------------------------------------------------------------|
E-/0-7--5--0-7--5--0-7--5--0-7--5--0-7--5--0-7--5--0-7--5--0-7-|some one else

g-----------------------| i think repeat 5X
d-------------7---------|
a-0-2-----2-2---7-------|
E-----0-2---------5-5-x-|
[ Tab from: http://www.guitartabs.cc/tabs/m/maroon_5/she_will_be_loved_btab_ver_3.html ]
chorus:
g--------------------------------------------------------|then after the "g"
d--------------------------------------------------------|note. play d same
a-5-5---------------------0-5-5--------------------------|notes but play it
E-----0-5-5--0-7-7--0-5-5-------0-5-5--0-7-7--3-3-3-3-3--|about 5 times. except for the
open notes. and at the end of the chorus play the "g" note 1 time

verse2:
g-----------------------| i think repeat 8x
d-------------7---------|
a-0-2-----2-2---7-------|
E-----0-2---------5-5-x-|

then do the chorus but i think its more than 2 times..... just figue it out i know yr
smart enough!!!

then for the bridge do the "verse2" but i dont know how many times. but until the
phrase "she falls". and end with the note "g"

the do this
g--------|
d--------| i think repeat 2x then end with the note "g"
a--------|
E-0-7--5-|

then do the chorus until the end of the song

THATS IT!!! i hope this helped you if you want to make corrections then e-mail me at
and if you have "friendster" add me as a friend......(you know my e-mail so its easier
to 
me....)
Comments