Maroon 5 - Secret Chords & Tabs

 

Secret Chords & Tabs

Maroon 5 Chords & Tabs

Version: 2 Type: Tab 0 ratings
1 star 2 stars 3 stars 4 stars 5 stars
comments

Secret Tab

Secret
by Maroon 5
Tabs by Eric fookwanfoo@hotmail.com

Intro/Verse

-Listen to the recording to know when to strum, to pluck, to
only play certain notes of the chords. Sometimes the transition
chord 5X45xx is omitted.
-Instead of playing 5X55XX you could play X055XX, etc.
-Here's the general rhythm:

e|----------------------------------------------------------------
B|----------------------------------------------------------------
G|-5---X-5---------5---X-5---------5---X-5---------5---X-5---5----
D|-5---X-5---------4---X-4---------3---X-3---------2---X-2---4----
A|----------------------------------------------------------------
E|-5-----5---------5-----5---------5-----5---------5-----5---5---- 

Chorus

e|----------------------------------------------------------------
B|----------------------------------------------------------------
G|-9-------9-------8-------8-------7-------7-------5--------------
D|----7-------7-------7---------------5-------5-------------5-----
A|-----------------------------------------------------7----------
E|-8---------------7---------------6---------------5--------------
[ Tab from: http://www.guitartabs.cc/tabs/m/maroon_5/secret_tab_ver_2.html ]
e|----------------------------------5--------------0--------------
B|-------------------------7-------------5---------0--------------
G|-9-------9-------8------------------------7------1--------------
D|----7-------7-------7----------------------------2-----3----2-0- 
A|-------------------------------------------------2--------------
E|-8---------------7----------------6--------------0--------------


BRIDGE (I've written down the implied chords)

   5775XX          X7655X           5755XX         55455X
e|----------------------------------------------------------------
B|----------------------------------------------------------------
G|----------------------------------------------------------------
D|-7---------------6----------------5--------------4--------------
A|----------------------------------------------------------------
E|----------------------------------------------------------------


   5X555X          5X455X           5X355X         7X776X X76750 
e|----------------------------------------------------------------
B|-5-------5-------5-------5--------------------------------------
G|----2-------2-------2-------2-----------------------------------
D|------5-------5-------4-------4---3---X-3-----7--9------6--5---(7)
A|-----------------------------------------------------8----------
E|----------------------------------------------------------------
Comments