Maroon 5 - Not Coming Home Chords & Tabs

 

Not Coming Home Chords & Tabs

Maroon 5 Chords & Tabs

Version: 2 Type: Tab 0 ratings
1 star 2 stars 3 stars 4 stars 5 stars
comments

Not Coming Home Tab

Artist:  Maroon 5
Song:  Not Coming Home
Album:  Songs About Jane 
Tabbed by:  Andy Lytwynec
Email: abl26@cornell.edu


Bass (intro/verse only) for guitar:
e---------------------------------------------------------------------------
b---------------------------------------------------------------------------
g---------------------------------------------------------------------------
d-------------2------------------------2-----4----------2-------------------
a-----3--4--------------------3--4------------------------0-------0--0--0---
e-------------------------------------------------------------------------4-


Guitar 1 Verse:
e---------------------------------------------------------------------------
b---------------------------------------------------------------------------
g-----5--6---9---------------5--6---9-----11---------9----------------------
d--------------------------------------------------------7------7--7--7--6--
a-----3--4---7---------------3--4---7------9---------7----------------------
e--------------------------------------------------------5------5--5--5--4--
[ Tab from: http://www.guitartabs.cc/tabs/m/maroon_5/not_coming_home_tab_ver_2.html ]
Guitar 2 Intro/Verse   (played partially during verse):
e---------------------------------------------------------------------------
b----------------7-5-4-----------------------5--4------------\5-4-----------
g------------------------6--4--\6--6---------------------------------6--5---
d---------------------------------------------------------------------------
a---------------------------------------------------------------------------
e---------------------------------------------------------------------------


Chorus:
e---------------------------------------------------------------------------
b------5--5---------5--5--------5--5-------5--5-------------------5------5--
g------6--6---------6--6--------6--6-------6--6-----( 3x )--------6------6--
d------6--6---------6--6--------6--6-------6--6-------------------6------6--
a-------------------------------3--3-------4--4-----------------------------
e------5--5---------7--7------------------------------------------5------7--


Actually my first tab ever....got tired of the lack of Maroon 5 tabs so I decided
to figure it out myself.  Email me any corrections, etc.
Comments