Maroon 5 - Not Coming Home Chords & Tabs

 

Not Coming Home Chords & Tabs

Maroon 5 Chords & Tabs

Version: 1 Type: Bass Tab 1 rating
1 star 2 stars 3 stars 4 stars 5 stars
comments

Not Coming Home Bass Tab

Band: Maroon 5
Song: Not coming home
Album: Songs about Jane
Tabber: Rockin_bassist73

I like this song b/c the bass doesn/’t follow the guitar.  It/’s a great song and I suggest listening to it a few times to get the beat.
*Bass comes in at 0:23 exactly*

Intro/Verse 6X
G|--------------------------|
D|----2-----2-4---2---------|
A|-3-4---3-4-------0—0-0-0--|
E|------------------------4-|
[ Tab from: http://www.guitartabs.cc/tabs/m/maroon_5/not_coming_home_btab.html ]
Bridge 1 3X 
                           Add on  |Add on
                          2nd time | 3rd time      
G|--------------------|--------|-----|
D|--------------------|--------|-----|
A|-----2-2--3-3--4-4|4-------|44---|
E|-5-5----------------|--------|-----|

Chorus
G|--------|
D|--------|
A|--------|
E|-5---4--|

Intro/Verse 6X

Bridge 2[note this bridge is different listen to it to get the beat] 3X
G|--------------------------|
D|--------------------------|
A|------2-2-2--3-3-3--4-4-4-|
E|5-5-5---------------------|

Chorus

Intro/Verse 2X

Bridge 2 [the beat after the guitar come in is different then before so listen to it, the triplets after the guitar comes in go one fast one slow one fast one slow] 5X

Chorus/Verse 2X
G|--------------------|
D|-----------2-----2--|
A|--------3-4---3-4---|
E|-5---4--------------|

Ending
G|---------|
D|---------|
A|-------4-|
E|-5---4---|
Comments