Maroon 5 - Must Get Out Chords & Tabs

 

Must Get Out Chords & Tabs

Maroon 5 Chords & Tabs

Version: 2 Type: Tab 0 ratings
1 star 2 stars 3 stars 4 stars 5 stars
comments

Must Get Out Tab

Here it is, there isnt a single part of this that doesnt sound right in my opinion.

Intro/Verse:

e--7-7-5-5-7-7-5-5-7-7-5-5-7-7-5-5-7-7-5-5-7-7-5-5-7-5-7-5-7-5-7-5--|
b--8-8-8-8-8-8-8-8-8-8-8-8-8-8-8-8-8-8-8-8-8-8-8-8-8-8-8-8-8-8-8-8--|
g--------------------------------------------------0-0-0-0-0-0-0-0--|
d-------------------------------------------------------------------|
a-------------------------------------------------------------------|
E-------------------------------------------------------------------|

Chorus (each chord played 8 times):
[ Tab from: http://www.guitartabs.cc/tabs/m/maroon_5/must_get_out_tab_ver_2.html ]
e--3--3--3--3--|      (x2)
b--3--3--3--3--|
d--0--2--0--0--|
g--0--0--2--2--|
a--2--x--2--3--|
E--3--2--0-----|

Repeat Intro/Verse then this (each chord played 8 times):

e--2--3--0--0--2--3--1--1--|
b--3--3--1--0--3--3--1--1--|
g--2--0--0--0--2--0--2--2--|
d--0--2--2--2--0--2--3--3--|
a-----2--3--3-----2--3--3--|
E-----0-----------0--1--0--|

This time each chord played once:

e--3--3--3--3--|      (x2)
b--3--3--3--3--|
g--0--2--0--0--|
d--0--0--2--2--|
a--2--x--2--3--|
E--3--2--0-----|

Chorus (x2):

Finish on the first chord of the Chorus and play the Intro/Verse riff for as long as
you want (until fade out).

Thats it, any comments or corrections dont hesitate to email me at:
cazz3000@msn.com.
Comments