Maroon 5 - Must Get Out Chords & Tabs

 

Must Get Out Chords & Tabs

Maroon 5 Chords & Tabs

Version: 1 Type: Tab 0 ratings
1 star 2 stars 3 stars 4 stars 5 stars
comments

Must Get Out Tab

   
Band - Maroon 5
Song - Must get out

Intro/verses:
e|-------------------------------------------------------|
B|-------------------------------------------------------|
G|-0------------------0----------------------------------|
D|-5---0---3---0---0--5----------------------------------|
A|-2---2---x---3---2--2----------------------------------|
D|-3---3---3---3---3--3----------------------------------|
   G  G/D  G/F G/C
play these chords in this sequence (Palm muted)

e|-15-----------------13------------------------------15-|
B|----------15------------------13-----12--------15------|
G|-------------------------------------------------------|
D|-------------------------------------------------------|
A|-------------------------------------------------------|
D|-------------------------------------------------------|
second guitar played over verse chords



Chorus:
e|-3--3--3--3--------------------------------------------|
B|-3--3--3--3--------------------------------------------|
G|-0--2--0--0--------------------------------------------|
D|-0--0--2--2--------------------------------------------|
A|-2--x--2--3--------------------------------------------|
D|-3--2--0-----------------------------------------------|
   
[ Tab from: http://www.guitartabs.cc/tabs/m/maroon_5/must_get_out_tab.html ]
Interlude after 2nd chorus:
e|-2--3--3----2-3-1--------------------------------------|
B|-3--3--1----3-3-1--------------------------------------|
G|-2--0--0----2-0-2--------------------------------------|
D|----2--2------2-3--------------------------------------|
A|----2--3------2----------------------------------------|
D|----0---------0----------------------------------------|


e|-3--3--3--3--------------------------------------------|
B|-3--3--3--3--------------------------------------------|
G|-0--2--0--0--------------------------------------------|
D|-0--0--2--2--------------------------------------------|
A|-2--x--2--3--------------------------------------------|
D|-3--2--0-----------------------------------------------|
   strum each chord softly for this part...

e|-5b7--hold--r5--then---prebend-7-release to 3rd fret---|
B|-------------------------------------------------------|
G|-------------------------------------------------------|
D|-------------------------------------------------------|
A|-------------------------------------------------------|
D|-------------------------------------------------------|
second guitar played over above part (2nd time through)



Chorus:
e|-3--3--3--3--------------------------------------------|
B|-3--3--3--3--------------------------------------------|
G|-0--2--0--0--------------------------------------------|
D|-0--0--2--2--------------------------------------------| x4
A|-2--x--2--3--------------------------------------------|
D|-3--2--0-----------------------------------------------|
   
end on G
Comments