Maroon 5 - Harder To Breathe Chords & Tabs

 

Maroon 5 Chords & Tabs

Version: 9 Type: Tab 0 ratings
1 star 2 stars 3 stars 4 stars 5 stars
comments

Harder To Breathe Tab

   
harder to breathe by maroon 5, hope you like it! by the way the solo/bridge might 
be slightly rong but if you play it along with the trak it sounds fine! :) 

|---------------------------|
|---------------------------|
|---------------------------|
|------------------------0-2| x4
|--0-2-0-2---0-2-0-2-0-2----|
|----------2----------------|

How dare you say that my behavior is unacceptable
So condescending unnecessarily critical
I have the tendency of getting very physical
So watch your step cause if I do you'll need a miracle

You drain me dry and make me wonder why I'm even here
This Double Vision I was seeing is finally clear
You want to stay but you know very well I want you gone
Not fit to funkin' tread the ground that I'm walking on

Chorus (Chords)
G#           Cm#                  A             Em
When it gets cold outside and you got nobody to love
G#                       Cm#
You'll understand what I mean when I say
           A                    Em
There's no way we're gonna give up
G#                     Cm#                    A  
And like a little girl cries in the face of a monster that lives in her 
Em 
dreams
G#                                           Cm#                  G#
Is there anyone out there cause it's getting harder and harder to breathe
G#                                           Cm#                  G#
Is there anyone out there cause it's getting harder and harder to breathe

Verse 2
|---------------------------|
|---------------------------|
|---------------------------|
|------------------------0-2| x2
|--0-2-0-2---0-2-0-2-0-2----|
|----------2----------------|

What you are doing is screwing things up inside my head
You should know better you never listened to a word I said
Clutching your pillow and writhing in a naked sweat
Hoping somebody someday will do you like I did
[ Tab from: http://www.guitartabs.cc/tabs/m/maroon_5/harder_to_breathe_tab_ver_9.html ]
Chorus (Chords)
G#           Cm#                  A             Em
When it gets cold outside and you got nobody to love
G#                       Cm#
You'll understand what I mean when I say
           A                    Em
There's no way we're gonna give up
G#                     Cm#                    A  
And like a little girl cries in the face of a monster that lives in her 
Em 
dreams
G#                                           Cm#                  G#
Is there anyone out there cause it's getting harder and harder to breathe
G#                                           Cm#                  G#
Is there anyone out there cause it's getting harder and harder to breathe

Solo
|-----------------------------------------|
|-----------------------------------------|
|-----------------------------------------|
|------4-4-3-3-2-2-2-2--------------------|
|--2-2-----------------5-5-5-5-4-4-4-4-4-4| x2
|-----------------------------------------|

Bridge
|-----------------------------------------|
|-----------------------------------------|
|-----------------------------------------|
|------4-4-3-3-2-2-2-2--------------------|
|--2-2-----------------5-5-5-5-4-4-4-4-4-4| x2
|-----------------------------------------|
Does it kill
Does it burn
Is it painful to learn
That it's me that has all the control

Does it thrill
Does it sting
When you feel what I bring
And you wish that you had me to hold

Chorus (Chords)
G#           Cm#                  A             Em
When it gets cold outside and you got nobody to love
G#                       Cm#
You'll understand what I mean when I say
           A                    Em
There's no way we're gonna give up
G#                     Cm#                    A  
And like a little girl cries in the face of a monster that lives in her 
Em 
dreams
G#                                           Cm#                  G#
Is there anyone out there cause it's getting harder and harder to breathe
G#                                           Cm#                  G#
Is there anyone out there cause it's getting harder and harder to breathe

thank you for clicking this, hope its easy enough to learn sorry if there are any 
mistakes please tell me if you notice any thank you! :)
Comments