Maroon 5 - Harder To Breathe Chords & Tabs

 

Maroon 5 Chords & Tabs

Version: 3 Type: Bass Tab 0 ratings
1 star 2 stars 3 stars 4 stars 5 stars
comments

Harder To Breathe Bass Tab

Harder to Breathe
Maroon 5
From "Songs About Jane"


Bass Tab
Tuning: Standard


1st Verse: 
  [-----------Guitar Only------------][--Base Starts
G|-------------------------------------------------------------------------|
D|--------------------24-------------------24-------------------24---------|
A|-24--24---24--24--24--24--24---24---4--24--24--24---24--24--24--24--24---|
E|--------4--------4-----------4--------4-----------4--------4-----------4-|

G|----------|
D|----------|
A|24---4----|
E|----------|


1st Chorus:
G|-------------------------------------------------------------------------|
D|-------------------------------------------------------------------------|
A|--4----------2------------4----------2-----------4----------2------------|
E|------4-4-44-----2-2-0202-----4-4-44----2-2-0202-----4-4-44-----2-2-2020-|

G|-------|
D|-------|
A|--4-4--|
E|-------|


2nd Verse:
G|------------------------------------------|
D|----------------------24------------------|
A|---24--24---24--24--24--24--24---24---4---|
E|----------4--------4-----------4----------|

[ Tab from: http://www.guitartabs.cc/tabs/m/maroon_5/harder_to_breathe_btab_ver_3.html ]
2nd Chorus:
G|-------------------------------------------------------------------------|
D|-------------------------------------------------------------------------|
A|--4----------2------------4----------2-----------4----------2------------|
E|------4-4-44-----2-2-0202-----4-4-44----2-2-0202-----4-4-44-----2-2-2020-|

G|--------------------------------|
D|--------------------------------|
A|--4---4-4-44-------4-4-4----4---|
E|---------------4--------2-0-----|


Bridge:
G|---------------------------6---------------------------------------------|
D|----------------------------6-----------------------------6--------------|
A|-4-4---4-4-44---4-----4-4-4--4--4-4---4-4-44---4-----4-4-4-4--4---4-4-44-|
E|------------------------------------------------------------64-----------|

G|---------------------------------------------------|
D|---------------------------------------------------|
A|---4---4-4-4---4---4-4-44---4------4---------------|
E|------------40-------------------4--4--2---4-2-0---|


3rd Chorus:
G|-------------------------------------------------------------------------|
D|-------------------------------------------------------------------------|
A|--4----------2------------4----------2-----------4----------2------------|
E|------4-4-44-----2-2-0202-----4-4-44----2-2-0202-----4-4-44-----2-2-2020-|

G|------------------------------------|
D|------------------------------------|
A|--4---4-4-44-------4-4-4----4---4---|
E|---------------4--------2-0---------|


Ending
G|---------|
D|---------|
A|----24---|
E|---------|
Comments