Maroon 5 - Harder To Breathe Chords & Tabs

 

Maroon 5 Chords & Tabs

Version: 2 Type: Bass Tab 0 ratings
1 star 2 stars 3 stars 4 stars 5 stars
comments

Harder To Breathe Bass Tab

Verse

e--------------4------4-----------------------4---------------|
a--2-4---2--4----2-4-----2-4--------2-4---2-4---2-4-------2-4-|
d------------------------------2-4-------------------2-4------|
g-------------------------------------------------------------|

Chorus:
[ Tab from: http://www.guitartabs.cc/tabs/m/maroon_5/harder_to_breathe_btab_ver_2.html ]
e---44444----2220---44444---2220-------------------------------|
a-4------2--------4-------2------------------------------------|
d--------------------------------------------------------------|
g--------------------------------------------------------------|

You Don't PLay this tab at the line:
'Is there anyone out there coz it's getting harder and harder to breathe'

Ok i think I have done it, hopefully it is alrite but if niot then i'll update it or something..
BYE!! xxx
Comments