Maroon 5 - Give A Little More Chords & Tabs

 

Give A Little More Chords & Tabs

Maroon 5 Chords & Tabs

Version: 1 Type: Bass Tab 0 ratings
1 star 2 stars 3 stars 4 stars 5 stars
comments

Give A Little More Bass Tab

This is the tabs for the studio version of Maroon 5's
Give A Little More. It is in the key of D minor, and the
live version is just a half step down.

There are a lot of little fills and stuff that I wasn't able to
tab because I'm still getting the hang of learning songs
by ear.

I'm pretty sure that this is 100% correct, but I'm only
human so there may be mistakes. You should listen to the song
for the rhythm of the parts, its very easy

Check out my band, Verticoli, cover this song at:
http://www.youtube.com/watch?v=ANor5xZni-Q


( ) - tied note


VERSE 1

G--------------|---------------|---------------|-------------------|
D--------------|---------------|---------------|-------------------|
A--5---5---5---|---5---5---5---|---5---5---5---|---5---5---5-------|
E--------------|---------------|---------------|-------------------|

---------------|---------------|---------------|-------------------|
---5---5---5---|---5---5---5---|---------------|-------------------|
---------------|---------------|---5---5---5---|---5---5---5-------|
---------------|---------------|---------------|-------------------|  x2


I'M WAITING FOR SOMETHING....

G---------------|---------------|---------------|------------------|
D---------------|---------------|---------------|------------------|
A--5--5--5--5---|--5--5--5--5---|--5--5--5--5---|--5--5--5--5------|
E---------------|---------------|---------------|------------------|

---------------|---------------|---------------|-------------------|
--5--5--5--5---|--5--5--5--5---|--7--7--7--7---|--7--7--7--7-------|
---------------|---------------|---------------|-------------------|
---------------|---------------|---------------|-------------------|

CHORUS
[ Tab from: http://www.guitartabs.cc/tabs/m/maroon_5/give_a_little_more_btab.html ]
G---------------|---------------|---------------|------------------|
D---------------|---------------|---------------|------------------|
A--5--5--5--5---|--5--5--5--5---|--5--5--5--5---|--5--5--5--5------|
E---------------|---------------|---------------|------------------|

---------------|---------------|---------------|-------------------|
--5--5--5--5---|--5--5--5--5---|--7--7--7--7---|--7--7--7--7-------|
---------------|---------------|---------------|-------------------|
---------------|---------------|---------------|-------------------|

BRIDGE

G---------------|---------------|---------------|------------------|
D---------------|---------------|---------------|------------------|
A---------------|---------------|---3-----------|------------------|
E--3--5--6--6---|--(6)----------|-----------6---|--(6)-------------|


----------------|---------------|---------------|------------------|
----------------|---------------|---------------|------------------|
----------------|---------------|---3-------4---|--(4)-------------|
---3--5--6--6---|--(6)----------|---------------|------------------|

LIVE VERSION OUTRO (the live version is played half a step down,
meaning that all the above would have been Db instead of D)

G---------------|---------------|---------------|------------------|
D-------------2-|---------------|-------------2-|------------------|
A-4--4--4--4----|--4--4--4--4---|-4--4--4--4----|--4--4--4--4------|
E---------------|---------------|---------------|------------------|

Order of the song:

Drum intro
Guitar intro
Verse 1
I'm waiting for something...
Chorus 1
Guitar interlude
Verse 2 (half as long as Verse 1)
I'm waiting for something...
Chorus 2
Bridge
Chorus 3 (twice as long)
Live version outro

Thank you for viewing my tab :) Please rate 5 stars :D

You can help me out even more by checking out my band, Verticoli
at:

www.verticolimusic.com
www.youtube.com/verticolimusic

THANKS!
Comments