Maroon 5 - Closer Chords & Tabs

 

Closer Chords & Tabs

Maroon 5 Chords & Tabs

Version: 1 Type: Tab 0 ratings
1 star 2 stars 3 stars 4 stars 5 stars
comments

Closer Tab

   
                     Maroon 5
                     "Closer"
               (Nine Inch Nails cover)

Tabbed by: Stuart Andrews
Email: onestu3@yahoo.com

Tuning: EADGBe


intro: (drum)

"This is one of the best songs ever writen" -Adam Levine

intro: (Guitar)
e---------------------------------------|
b---------------------------------------|
g---------------------------------------|
d---------------------------------------|
a---1-3^3^3-----------1-1---------------|
E----------------------------------12/0-|

"You let me violate you"
verse: (Guitar)
e--------------------------------------|
B--------------------------------------|
G--------------------------------------|
D-----------(1)------------------------|
A-1-3-1-3----1----3----1-3-1-3---3-1---|
E------------------------------------3-|

you let me desicrate you
you let me complicate you
you let me penetrate you

Help me,  torn apart my insides
Help me,  I got no soul to sell
Help me,  you're the thing that works for me
Help me get away from myself


Chorus:

"I wanna fuck you like an animal"
(Chords)  F  Bb  B

I wanna feel you from the inside
I wanna fuck you like an animal
my whole existance is flawed
you bring me closer to god

Turnaround:

(fast picking)-the octives are in ()
e-------------------------------------------|
b-------------------------------------------|
g--9-9-9-9-9-9-9-10-10-10-10-12-12-12-13-13-|
d-(2)-----------(3)---------(5)------(6)----|
a-(7)-----------(8)---------(10)-----(11)---|
E-(0)-----------(1)---------(3)------(4)----|


Second verse:

You cant help my issolation
YOu cant help the hate that it brings
you cant help my absense of faith
you cant help my everything

help me,  turn on my reason
help me,  your sex i can smell
help me,  you make me perfect yeah
help me think i'm somebody else

Chorus: F Bb B

I wanna fuck you like an animal
I wanna feel you from the inside
I wanna fuck you like an animal
my whole existance is flawed
you bring me closer to god

[ Tab from: http://www.guitartabs.cc/tabs/m/maroon_5/closer_tab.html ]
Turnaround:
(fast picking)-the octives are in ()
e-------------------------------------------|
b-------------------------------------------|
g--9-9-9-9-9-9-9-10-10-10-10-12-12-12-13-13-|
d-(2)-----------(3)---------(5)------(6)----|
a-(7)-----------(8)---------(10)-----(11)---|
E-(0)-----------(1)---------(3)------(4)----|


Breakdown:
e-----------|
b-----------|
g-----------|   (silence)
d-----------|
a-6-6-6-8---|
E-----------|

                (guitar 1)
e--------------|---------------------------------------------|
b--------------|----10/13-13--10/13-13---10/13-13---10/13-13-|
g--------------|----10/12-12--10/12-12---10/12-12---10/12-12-|
d--------------|---------------------------------------------|
a-6-6-6-8------|---------------------------------------------|
E--------------|---------------------------------------------|

              (guitar 2)
e------------|-------------------------------------------------|
b------------|-------------------------------------------------|
g------------|-------------------------------------------------|
d------------|-------------------------------------------------|
a-6-6-6-8----|--10-8--7--8--10-8--7--8--10-8--7--8--10-8--7--8-|
E------------|--8--6--5--6--8--6--5--6--8--6--5--6--8--6--5--6-|

e----------------------------------------------------------------)
b------------                                      b-------------)
g------------                                      g-------------)
d------------  (mix last two with guitar 1 holding d-8-8-8-8-8---)
a-6-6-6-8----                                      a-------------)
E----------------------------------------------------------------)


jam:

(guitar 1)
e----------------------|
b-------------------4--|
g--5-3-5--3-3-5--3-5---| (guitar 1 continues until end)
d----------------------|
a----------------------|
E----------------------|

(guitar 2)
e-------------------------|
b-------------------------|
g-------------------------|(repeats 4 times)
d--------------------1----|
a--3-1-3--1-1-3--1-3------|
E-------------------------|

(fast picking: guitar 2)

e-15------13-----13-----12----11----10------------------|
b-13------11-----11-----10----9-----8-----11-11--10--13-|
g-12------10-----10-----9-----8-----7-----10-10--9---12-|
d-----------------------------------------8--8---7---10-|
a-------------------------------------------------------|
E-------------------------------------------------------|

end: (piano/guitar)

e---------------------------------|
b-20-18--18-17--16-15-------------|
g---------------------15-15-14-17-|
d---------------------------------|
a---------------------------------|
E---------------------------------|
Comments