Maroon 5 - Beautiful Goodbye Chords & Tabs

 

Beautiful Goodbye Chords & Tabs

Maroon 5 Chords & Tabs

Version: 1 Type: Tab 0 ratings
1 star 2 stars 3 stars 4 stars 5 stars
comments

Beautiful Goodbye Tab

   
Maroon 5
Beautiful Goodbye
tabbed by sanec17

Standard Tuning
Capo 3rd Fret

Check out the YouTube video for the timing:   http://youtu.be/lPV7Wrp35fo

==================================
Verse/Pre-Chorus/Chorus
==================================
Listen for the timing in the first 10 seconds of the song.


e--------3-------3----------3-------3----------3------3---------3 --------------3------|
B--------3-------3----------3-------3----------3------3---------3 --------------3------|
G--------------------------------------------------------------------------------------|
D------------------------------------------------------------------------0------1------|
A----------------------2--------2--------3---------3--------3---------3----------------|
E---3--------3-------------------------------------------------------------------------|


[ Tab from: http://www.guitartabs.cc/tabs/m/maroon_5/beautiful_goodbye_tab.html ]
e--------3-------3----------3-------3----------3-------3--------3--------------3----|
B--------3-------3----------3-------3----------3-------3--------3--------------3----|
G-----------------------------------------------------------------------------------|
D---2--------2----------------------------------------------------------------------|
A----------------------2--------2---------3---------3-------3---------3-------------|
E-----------------------------------------------------------------------------------|

=======================================
Bridge
=======================================
Strum these chords. Again, listen for the timing.


D  -  C

Bm7  -  C

D  -  C

Am  -  Bm  -  C (barred)




---------------------------------------------------------------------------------
Chords  -   (EADGBe)

D       -    000232
C        -   032010
Bm7    -     224232
Am      -    002210
Bm      -    224432
C (barred) - 335553
Comments