Marmalade - Lovin Things Chords & Tabs

 

Lovin Things Chords & Tabs

Marmalade Chords & Tabs

Version: 1 Type: Tab 0 ratings
1 star 2 stars 3 stars 4 stars 5 stars
comments

Lovin Things Tab

   
-------------------------------------------------------------------

      THE MARMALADE - LOVIN' THINGS (Schroeck/Loring) Released as a
                      single in 1968 with HEY JOE as the B side. It 
                      reached # 6 in the UK. 

-------------------------------------------------------------------

      Tabbed by:PJVillanueva





It's the lovin' things you do 
That make me grow so close to you 
Gonna want you my whole life through 
For the lovin' things, baby, that you do 

It's the lovin' things you say 
That give me comfort every day 
By your side I'm gonna stay 
To hear the lovin' things, baby that you say

Since that day our love began 
I've become a new and happy man 
I can hold my head up high 
When you are near I touch the sky 

With your soft and sweet caress 
You brought me such tenderness 
To think I was once forsaken 
With your kiss I've been awaken.. 

    Chorus

 (Instrumental) 

Then you walked into my life
Said how you'd soon end all my strife
With a smile from your young face 
You gave me back my inspiration 

It's the lovin' things we share 
That assures me how you care 
Our friends call us the perfect pair 
For the lovin' things, baby, that we share 


   (Instrumental) 

     Chorus




                                     
  G                               D
e|------- ------- ------- -------|------- ------- ------- -------|
B|3-------3-------3-------3------|3-------3-------3-------3------|
G|0-------0-------0-------0------|2-------2-------2-------2------|
D|0-------0-------0-------0------|0-------0-------0-------0------|
A|-------------------------------|-------------------------------|
E|3-------3-------3-------3------|2-------2-------2-------2------|

e|------- ------- ------- -------|------- 5------ 3------ 2------|
B|------------3---3--------------|3---------------3--------------|
G|0------------------------------|2---------------2--------------|
D|0------------------------------|0------------------------------|
A|-------------------------------|-------------------------------|
E|-------------------------------|-------------------------------|



  G7                              C               Cm
e|------- ------- ------- -------|------- ------- ------- -------|
B|3-------3-------3-------3------|1-------1-------4-------4------|
G|0-------0-------0-------0------|0-------0-------5-------5------|
D|3-------3-------3-------3------|2-------2-------5-------5------|
A|-------------------------------|----------------3-------3------|
E|1-------1-------1-------1------|0-------0----------------------|

e|3------ ------- ------- 3------|------- ------- ------- -------|
B|3-----------------------3------|1---------------1--------------|
G|4------------------------------|0---------------0--------------|
D|3------------------------------|2---------------1--------------|
A|-------------------------------|-------------------------------|
E|-------------------------------|-------------------------------|



  D               Cdim            Em              D
e|2------ ------- 2------ -------|3------ ------- 2------ -------|
B|3---------------1--------------|0---------------3--------------|
G|2---------------2--------------|0---------------2--------------|
D|0---------------1--------------|2---------------0--------------|
A|-------------------------------|-------------------------------|
E|-------------------------------|-------------------------------|

e|------- ------- ------- -------|------- ------- ------- -------|
B|3---3-------3-------1-------1--|1---0-------0-------0-------0--|
G|2-------------------2----------|0---------------0--------------|
D|4-------------------1----------|2---------------0--------------|
A|-------------------------------|-------------------------------|
E|-------------------------------|-------------------------------|



  C               G               Am              D
e|0------ 0------ ------- -------|0------ 0------ 2------ 2------|
B|1-------1-------3-------3------|1-------1-------3-------3------|
G|0-------0-------0-------0------|2-------2-------2-------2------|
D|----------------0-------0------|----------------0-------0------|
A|3-------3-------2-------2------|0-------0----------------------|
E|-------------------------------|-------------------------------|  

e|------- ------- ----3-- ----3--|3------ ------- ------- -------|
B|0------------------------------|----3-------3---3--------------|
G|0---0-------0-------0-------0--|0---------------2--------------|
D|2---------------0--------------|----0-------0------------------|
A|3---------------2--------------|0------------------------------|
E|-------------------------------|----------------2--------------|



  G                               D
e|------- ------- ------- -------|------- ------- ------- -------|
B|3-------3-------3-------3------|3-------3-------3-------3------|
G|0-------0-------0-------0------|2-------2-------2-------2------|
D|0-------0-------0-------0------|0-------0-------0-------0------|
A|-------------------------------|-------------------------------|
E|3-------3-------3-------3------|2-------2-------2-------2------|
  It's the    lovin'          things  you     do              that 
e|------- 7------ ------- 7------|------- 5------ ------- 5------|
B|--------8---------------8------|--------7---------------7------|
G|--------7---------------7------|--------7---------------7------|
D|--------9---------------9------|--------7---------------7------|
A|-------------------------------|-------------------------------|
E|-------------------------------|-------------------------------|

e|7------ ------- ------- 10-----|------- ------- ------- -------|
B|-------------------------------|10----------------------7--10--|
G|-------------------------------|----------------7---9----------|
D|-------------------------------|-------------------------------|
A|-------------------------------|-------------------------------|
E|-------------------------------|-------------------------------|



  G7                              C               Cm
e|------- ------- ------- -------|------- ------- ------- -------|
B|3-------3-------3-------3------|1-------1-------4-------4------|
G|0-------0-------0-------0------|0-------0-------5-------5------|
D|3-------3-------3-------3------|2-------2-------5-------5------|
A|-------------------------------|----------------3-------3------|
E|1-------1-------1-------1------|0-------0----------------------|
  make me     grow    so      close   to      you 
e|------- 7------ ------- 7------|------- 8------ ------- 8------|
B|--------8---------------8------|--------8---------------8------|
G|--------7---------------7------|--------9---------------8------|
D|--------9---------------9------|-------10--------------10------|
A|-------------------------------|-------------------------------|
E|-------------------------------|-------------------------------|

e|7------ ------- ------- 10-----|------- ------- ------- -------|
B|-------------------------------|8------------------------------|
G|-------------------------------|-------------------------------|
D|-------------------------------|-------------------------------|
A|-------------------------------|-------------------------------|
E|-------------------------------|-------------------------------|



  D               Cdim            Em              D
e|2------ 2------ 2------ 2------|3------ 3------ 2------ 2------|
B|3-------3-------1-------1------|0-------0-------3-------3------|
G|2-------2-------2-------2------|0-------0-------2-------2------|
D|0-------0-------1-------1------|2-------2-------0-------0------|
A|-------------------------------|-------------------------------|
E|-------------------------------|-------------------------------|
  Gonna       want    you   my whole  life    through     for the
e|------- 5------ ------- 5------|------- 7------ ------- 3------|
B|--------7---------------7------|--------8---------------3------|
G|--------7---------------5------|--------7---------------4------|
D|--------7---------------7------|--------9---------------5------|
A|-------------------------------|-------------------------------|
E|-------------------------------|-------------------------------|



  C               G               Am              D
e|0------ 0------ ------- -------|0------ 0------ 2------ 2------|
B|1-------1-------3-------3------|1-------1-------3-------3------|
G|0-------0-------0-------0------|2-------2-------2-------2------|
D|----------------0-------0------|----------------0-------0------|
A|3-------3-------2-------2------|0-------0----------------------|
E|-------------------------------|-------------------------------| 
  lovin'      things,     baby,   that you    do 
e|------- 8------ ------- 7------|------- 5------ ------- 5------|
B|--------8---------------8------|--------5---------------7------|
G|--------9---------------7------|--------5---------------7------|
D|-------10---------------9------|--------7---------------7------|
A|-------------------------------|-------------------------------|
E|-------------------------------|-------------------------------|

e|------- ------- ------- -------|------- ------- ------- -------|
B|-------------------------------|----------------7-------7--10--|
G|-------------------------------|----------------7---9----------|
D|-------------------------------|----------------7--------------|
A|-------------------------------|-------------------------------|
E|-------------------------------|-------------------------------|



  G                               D
e|------- ------- ------- -------|------- ------- ------- -------|
B|3-------3-------3-------3------|3-------3-------3-------3------|
G|0-------0-------0-------0------|2-------2-------2-------2------|
D|0-------0-------0-------0------|0-------0-------0-------0------|
A|-------------------------------|-------------------------------|
E|3-------3-------3-------3------|2-------2-------2-------2------|
  It's the    lovin'          things  you     say             that
e|------- 7------ ------- 7------|------- 5------ ------- 5------|
B|--------8---------------8------|--------7---------------7------|
G|--------7---------------7------|--------7---------------7------|
D|--------9---------------9------|--------7---------------7------|
A|-------------------------------|-------------------------------|
E|-------------------------------|-------------------------------|
 
e|7------ ------- -------10------|5------ ------- ------- ----5--|
B|8-----------------------8------|7-------------------5---7------|
G|7-----------------------7------|7---------------7--------------|
D|-------------------------------|-------------------------------|
A|-------------------------------|-------------------------------|
E|-------------------------------|-------------------------------|



  G7                              C               Cm
e|------- ------- ------- -------|------- ------- ------- -------|
B|3-------3-------3-------3------|1-------1-------1-------1------|
G|0-------0-------0-------0------|0-------0-------0-------0------|
D|3-------3-------3-------3------|2-------2-------1-------1------|
A|-------------------------------|-------------------------------|
E|1-------1-------1-------1------|0-------0----------------------|
  give me     comfort         every           day 
e|------- 7------ ------- 7------|------- 8------ ------- 8------|
B|--------8---------------8------|--------8---------------8------|
G|--------7---------------7------|--------9---------------8------|
D|--------9---------------9------|-------10--------------10------|
A|-------------------------------|-------------------------------|
E|-------------------------------|-------------------------------|

e|7------ ------- -------10------|------- ------- ------- -------|
B|6-----------------------6------|8---------------8--------------|
G|7-----------------------7------|9---------------8--------------|
D|-------------------------------10--------------10--------------|
A|-------------------------------|-------------------------------|
E|-------------------------------|-------------------------------|



  D               Cdim            Em              D
e|2------ 2------ 2------ 2------|3------ 3------ 2------ 2------|
B|3-------3-------1-------1------|0-------0-------3-------3------|
G|2-------2-------2-------2------|0-------0-------2-------2------|
D|0-------0-------1-------1------|2-------2-------0-------0------|
A|-------------------------------|-------------------------------|
E|-------------------------------|-------------------------------|
  By  your    side    I'm     gonna           stay    to  hear the
e|------- 5------ ------- 5------|------- 7------ ------- 3------|
B|--------7---------------7------|--------8---------------3------|
G|--------7---------------5------|--------7---------------4------|
D|--------7---------------7------|--------9---------------5------|
A|-------------------------------|-------------------------------|
E|-------------------------------|-------------------------------|



  C               G               Am              D
e|0------ 0------ ------- -------|0------ 0------ 2------ 2------|
B|1-------1-------3-------3------|1-------1-------3-------3------|
G|0-------0-------0-------0------|2-------2-------2-------2------|
D|----------------0-------0------|----------------0-------0------|
A|3-------3-------2-------2------|0-------0----------------------|
E|-------------------------------|-------------------------------|
  lovin'      things,     baby    that you    say
e|------- 8------ ------- 7------|------- 5------ ------- 5------|
B|--------8---------------8------|--------5---------------7------|
G|--------9---------------7------|--------5---------------7------|
D|-------10---------------9------|--------7---------------7------|
A|-------------------------------|-------------------------------|
E|-------------------------------|-------------------------------|



  Bb                              Cm
e|------- ------- ------- -------|------- ------- ------- -------|
B|3-------3-------3-------3------|4-------4-------4-------4------|
G|3-------3-------3-------3------|5-------5-------5-------5------|
D|3-------3-------3-------3------|5-------5-------5-------5------|
A|1-------1-------1-------1------|3-------3-------3-------3------|
E|-------------------------------|-------------------------------|      
  Since that  day     our     love    began               I've be..
e|------6 6------ ------6 6------|------8 8------ ------8 8------|
B|------6-6-------------6-6------|------8-8-------------8-8------|
G|------7-7-------------7-7------|------8-8-------------8-8------|
D|------8-8-------------8-8------|-----1010------------1010------|
A|-------------------------------|-------------------------------|
E|-------------------------------|-------------------------------|



  Cm-5                            Bb
e|------- ------- ------- -------|------- ------- ------- -------|
B|4-------4-------4-------4------|3-------3-------3-------3------|
G|3-------3-------3-------3------|3-------3-------3-------3------|
D|4-------4-------4-------4------|3-------3-------3-------3------|
A|3-------3-------3-------3------|1-------1-------1-------1------|
E|-------------------------------|-------------------------------|
 .come a      new     and     happy           man 
e|------5 5------ ------5 5------|------6 6------ ------6 6------|
B|------6-6-------------6-6------|------6-6-------------6-6------|
G|------5-5-------------5-5------|------7-7-------------7-7------|
D|------7-7-------------7-7------|------8-8-------------8-8------|
A|-------------------------------|-------------------------------|
E|-------------------------------|-------------------------------|



  D                               Ddim
e|------- ------- ------- -------|------- ------- ------- -------|
B|7-------7-------7-------7------|3-------3-------3-------3------|
G|7-------7-------7-------7------|4-------4-------4-------4------|
D|7-------7-------7-------7------|3-------3-------3-------3------|
A|0-------0-------0-------0------|-------------------------------|
E|-------------------------------|4-------4-------4-------4------|
  I   can     hold    my      head    up      high            When 
e|------5 5------ ------5 5------|------4 4------ ------4 4------|
B|------7-7-------------7-7------|------6-6-------------6-6------|
G|------7-7-------------7-7------|------4-4-------------4-4------|
D|------7-7-------------7-7------|------6-6-------------6-6------|
A|-------------------------------|-------------------------------|
E|-------------------------------|-------------------------------|



  G                               A7
e|------- ------- ------- -------|------- ------- ------- -------|
B|3-------3-------3-------3------|2-------2----------------------|
G|4-------4-------4-------4------|0-------0----------------------|
D|5-------5-------5-------5------|2-------2----------------------|
A|-------------------------------|0-------0----------------------|
E|3-------3-------3-------3------|-------------------------------|
  you are     near    I           touch  the  sky 
e|------3 3------ ------3 3------|------5 5------ ------- -------|
B|------3-3-------------3-3------|------5-5----------------------|
G|------4-4-------------4-4------|------6-6----------------------|
D|------5-5-------------5-5------|------7-7----------------------|
A|-------------------------------|-------------------------------|
E|-------------------------------|-------------------------------|



  G               D               C               D
e|3------ ------- 2------ -------|0------ ------- 2------ -------|
B|3---------------3--------------|1---------------3--------------|
G|0---------------2--------------|0---------------2--------------|
D|0---------------0--------------|----------------0--------------|
A|-------------------------------|3---------------0--------------|
E|-------------------------------|-------------------------------|
  With your   soft    and         sweet   caress 


  G               D               C               D
e|3------ ------- 2------ -------|0------ ------- 2------ -------|
B|3---------------3--------------|1---------------3--------------|
G|0---------------2--------------|0---------------2--------------|
D|0---------------0--------------|----------------0--------------|
A|-------------------------------|3---------------0--------------|
E|-------------------------------|-------------------------------|
  You brought me      such        tenderness 


  C               Bb              Am
e|0------ 0------ ------- -------|------- ------- ------- -------|
B|1-------1-------3-------3------|1-------1-------1-------1------|
G|0-------0-------4-------4------|2-------2-------2-------2------|
D|----------------4-------4------|2-------2-------2-------2------|
A|3-------3-------2-------2------|0-------0-------0-------0------|
E|-------------------------------|-------------------------------|
  To  think   I       was     once    forsaken
e|8------ 8------ 7-7---- 7------|5------ 5------ 5-5---- 5------|    
B|8-------8-------7-7-----7------|5-------5-------5-5-----5------|
G|9-------9-------7-7-----7------|5-------5-------5-5-----5------|
D10------10-------9-9-----9------|7-------7-------7-7-----7------|
A|-------------------------------|-------------------------------|
E|-------------------------------|-------------------------------|



  D
e|------- ------- ------- -------|2------ 2------ 2------ 2------|
B|3-------3-------3-------3------|3-------3-------3-------3------|
G|2-------2-------2-------2------|2-------2-------2-------2------|
D|0-------0-------0-------0------|0-------0-------0-------0------|
A|-------------------------------|-------------------------------|
E|2-------2-------2-------2------|-------------------------------|   
  With your   kiss    I've    been    awaken 
e|5------ 5------ 5-5---- 5------|5------ 5------ 5------ 5------|
B|7-------7-------7-7-----7------|7-------7-------7-------7------|
G|7-------7-------7-7-----7------|7-------7-------7-------7------|
D|7-------7-------7-7-----7------|7-------7-------7-------7------|
A|-------------------------------|-------------------------------|
E|-------------------------------|-------------------------------|  

e|------- ------- ------- -------|------- ------- ------- -------|
B|-------------------------------|----------------7-------7--10--|
G|-------------------------------|----------------7---9----------|
D|-------------------------------|----------------7--------------|
A|-------------------------------|-------------------------------|
E|-------------------------------|-------------------------------|



  G                               D
e|------- ------- ------- -------|------- ------- ------- -------|
B|3-------3-------3-------3------|3-------3-------3-------3------|
G|0-------0-------0-------0------|2-------2-------2-------2------|
D|0-------0-------0-------0------|0-------0-------0-------0------|
A|-------------------------------|-------------------------------|
E|3-------3-------3-------3------|2-------2-------2-------2------|
  It's the    lovin'          things  you     do              that 
e|------- 7------ ------- 7------|------- 5------ ------- 5------|
B|--------8---------------8------|--------7---------------7------|
G|--------7---------------7------|--------7---------------7------|
D|--------9---------------9------|--------7---------------7------|
A|-------------------------------|-------------------------------|
E|-------------------------------|-------------------------------|

e|7------ ------- -------10------|5------ ------- ------- ----5--|
B|8-----------------------8------|7-------------------5---7------|
G|7-----------------------7------|7---------------7--------------|
D|-------------------------------|-------------------------------|
A|-------------------------------|-------------------------------|
E|-------------------------------|-------------------------------|



  G7                              C               Cm
e|------- ------- ------- -------|------- ------- ------- -------|
B|3-------3-------3-------3------|1-------1-------1-------1------|
G|0-------0-------0-------0------|0-------0-------0-------0------|
D|3-------3-------3-------3------|2-------2-------1-------1------|
A|-------------------------------|-------------------------------|
E|1-------1-------1-------1------|0-------0----------------------|
  make me     grow    so      close   to      you 
e|------- 7------ ------- 7------|------- 8------ ------- 8------|
B|--------8---------------8------|--------8---------------8------|
G|--------7---------------7------|--------9---------------8------|
D|--------9---------------9------|-------10--------------10------|
A|-------------------------------|-------------------------------|
E|-------------------------------|-------------------------------|

e|7------ ------- -------10------|------- ------- ------- -------|
B|6-----------------------6------|8---------------8--------------|
G|7-----------------------7------|9---------------8--------------|
D|-------------------------------10--------------10--------------|
A|-------------------------------|-------------------------------|
E|-------------------------------|-------------------------------|



  D               Cdim            Em              D
e|2------ 2------ 2------ 2------|3------ 3------ 2------ 2------|
B|3-------3-------1-------1------|0-------0-------3-------3------|
G|2-------2-------2-------2------|0-------0-------2-------2------|
D|0-------0-------1-------1------|2-------2-------0-------0------|
A|-------------------------------|-------------------------------|
E|-------------------------------|-------------------------------|
  Gonna       want    you   my whole  life    through     for the
e|------- 5------ ------- 5------|------- 7------ ------- 3------|
B|--------7---------------7------|--------8---------------3------|
G|--------7---------------5------|--------7---------------4------|
D|--------7---------------7------|--------9---------------5------|
A|-------------------------------|-------------------------------|
E|-------------------------------|-------------------------------|



  C               G               Am              D
e|0------ 0------ ------- -------|0------ 0------ 2------ 2------|
B|1-------1-------3-------3------|1-------1-------3-------3------|
G|0-------0-------0-------0------|2-------2-------2-------2------|
D|----------------0-------0------|----------------0-------0------|
A|3-------3-------2-------2------|0-------0----------------------|
E|-------------------------------|-------------------------------| 
  lovin'      things,     baby,   that you    do 
e|------- 8------ ------- 7------|------- 5------ ------- 5------|
B|--------8---------------8------|--------5---------------7------|
G|--------9---------------7------|--------5---------------7------|
D|-------10---------------9------|--------7---------------7------|
A|-------------------------------|-------------------------------|
E|-------------------------------|-------------------------------|    



  Bb                              Cm
e|------- ------- ------- -------|------- ------- ------- -------|
B|3-------3-------3-------3------|4-------4-------4-------4------|
G|3-------3-------3-------3------|5-------5-------5-------5------|
D|3-------3-------3-------3------|5-------5-------5-------5------|
A|1-------1-------1-------1------|3-------3-------3-------3------|
E|-------------------------------|-------------------------------|      
  
e|------6 6------ ------6 6------|------8 8------ ------8 8------|
B|------6-6-------------6-6------|------8-8-------------8-8------|
G|------7-7-------------7-7------|------8-8-------------8-8------|
D|------8-8-------------8-8------|-----1010------------1010------|
A|-------------------------------|-------------------------------|
E|-------------------------------|-------------------------------|
[ Tab from: http://www.guitartabs.cc/tabs/m/marmalade/lovin_things_tab.html ]
e|------- ------- ------- -------|------- ------- ------- -------|
B|-------------------------------|-------------------------------|
G|7-----------7---7---7-------7--|----5-------5-----------5---7--|
D|8-----------8---8---8-------8--|----5-------5-----------5---5--|
A|-------------------------------|-------------------------------|
E|6-----------6---6--------------|6-----------6-----------6------|      



  Cm-5                            Bb
e|------- ------- ------- -------|------- ------- ------- -------|
B|4-------4-------4-------4------|3-------3-------3-------3------|
G|3-------3-------3-------3------|3-------3-------3-------3------|
D|4-------4-------4-------4------|3-------3-------3-------3------|
A|3-------3-------3-------3------|1-------1-------1-------1------|
E|-------------------------------|-------------------------------|  
 
e|------5 5------ ------5 5------|------6 6------ ------6 6------|
B|------6-6-------------6-6------|------6-6-------------6-6------|
G|------5-5-------------5-5------|------7-7-------------7-7------|
D|------7-7-------------7-7------|------8-8-------------8-8------|
A|-------------------------------|-------------------------------|
E|-------------------------------|-------------------------------|

e|------- ------- ------- -------|------- ------- ------- -------|
B|--------------------6----------|-------------------------------|
G|8-----------8---8-----------8--|----7-------7------------------|
D|8-----------8---8-----------8--|----8-------8------------------|
A|-------------------------------|-------------------------------|
E|6-----------6---6--------------|6-----------6-------6-------6--|



  D                               Ddim
e|------- ------- ------- -------|------- ------- ------- -------|
B|7-------7-------7-------7------|3-------3-------3-------3------|
G|7-------7-------7-------7------|4-------4-------4-------4------|
D|7-------7-------7-------7------|3-------3-------3-------3------|
A|0-------0-------0-------0------|-------------------------------|
E|-------------------------------|4-------4-------4-------4------|
  
e|------5 5------ ------5 5------|------4 4------ ------4 4------|
B|------7-7-------------7-7------|------6-6-------------6-6------|
G|------7-7-------------7-7------|------4-4-------------4-4------|
D|------7-7-------------7-7------|------6-6-------------6-6------|
A|-------------------------------|-------------------------------|
E|-------------------------------|-------------------------------|

e|------- ------- ------- -------|------- ------- ------- -------|
B|-------------------------------|----------------------------3--|
G|------------7---7---7-------7--|----4-------4---------------4--|
D|------------7---7---7-------7--|----3-------3------------------|
A|-------------------------------|-------------------------------|
E|5-----------5---5--------------|4-------4-------4--------------|



  G                               A7
e|------- ------- ------- -------|------- ------- ------- -------|
B|3-------3-------3-------3------|2-------2----------------------|
G|4-------4-------4-------4------|0-------0----------------------|
D|5-------5-------5-------5------|2-------2----------------------|
A|-------------------------------|0-------0----------------------|
E|3-------3-------3-------3------|-------------------------------|
  
e|------3 3------ ------3 3------|------5 5------ ------- -------|
B|------3-3-------------3-3------|------5-5----------------------|
G|------4-4-------------4-4------|------6-6----------------------|
D|------5-5-------------5-5------|------7-7----------------------|
A|-------------------------------|-------------------------------|
E|-------------------------------|-------------------------------|

e|------- ------- ------- -------|------- ------- ------- -------|
B|3-----------5---------------3--|-------------------------------|
G|4---4-------4---------------4--|7-------6----------------------|
D|-------------------------------|7-------7----------------------|
A|-------------------------------|--------0----------------------|
E|3-----------3-------3-------3--|-------------------------------|     



  G               D               C               D
e|3------ ------- 2------ -------|0------ ------- 2------ -------|
B|3---------------3--------------|1---------------3--------------|
G|0---------------2--------------|0---------------2--------------|
D|0---------------0--------------|----------------0--------------|
A|-------------------------------|3---------------0--------------|
E|-------------------------------|-------------------------------|   
  Then you    walked into             my      life 


  G               D               C               D
e|3------ ------- 2------ -------|0------ ------- 2------ -------|
B|3---------------3--------------|1---------------3--------------|
G|0---------------2--------------|0---------------2--------------|
D|0---------------0--------------|----------------0--------------|
A|-------------------------------|3---------------0--------------|
E|-------------------------------|-------------------------------|
  Said how  you'd soon end        all     my  strife


  C               Bb              Am
e|0------ 0------ ------- -------|------- ------- ------- -------|
B|1-------1-------3-------3------|1-------1-------1-------1------|
G|0-------0-------4-------4------|2-------2-------2-------2------|
D|----------------4-------4------|2-------2-------2-------2------|
A|3-------3-------2-------2------|0-------0-------0-------0------|
E|-------------------------------|-------------------------------|
  With a      smile   from    your    young   face            you 
e|8------ 8-----7 7------ 7------|5------ 5-----5 5------ 5------|    
B|8-------8-----7-7-------7------|5-------5-----5-5-------5------|
G|9-------9-----7-7-------7------|5-------5-----5-5-------5------|
D10------10-----9-9-------9------|7-------7-----7-7-------7------|
A|-------------------------------|-------------------------------|
E|-------------------------------|-------------------------------|



  D
e|------- ------- ------- -------|2------ 2------ 2------ 2------|
B|3-------3-------3-------3------|3-------3-------3-------3------|
G|2-------2-------2-------2------|2-------2-------2-------2------|
D|0-------0-------0-------0------|0-------0-------0-------0------|
A|-------------------------------|-------------------------------|
E|2-------2-------2-------2------|-------------------------------|  
  gave        me  back        my  inspiration 
e|5------ 5------ 5------ 5------|5------ 5------ 5------ 5------|
B|7-------7-------7-------7------|7-------7-------7-------7------|
G|7-------7-------7-------7------|7-------7-------7-------7------|
D|7-------7-------7-------7------|7-------7-------7-------7------|
A|-------------------------------|-------------------------------|
E|-------------------------------|-------------------------------|     

e|------- ------- ------- -------|------- ------- ------- -------|
B|-------------------------------|----------------7-------7--10--|
G|-------------------------------|----------------7---9----------|
D|-------------------------------|----------------7--------------|
A|-------------------------------|-------------------------------|
E|-------------------------------|-------------------------------|



  G                               D
e|------- ------- ------- -------|------- ------- ------- -------|
B|3-------3-------3-------3------|3-------3-------3-------3------|
G|0-------0-------0-------0------|2-------2-------2-------2------|
D|0-------0-------0-------0------|0-------0-------0-------0------|
A|-------------------------------|-------------------------------|
E|3-------3-------3-------3------|2-------2-------2-------2------|
  It's the    lovin'          things  we      share               
e|------- 7------ ------- 7------|------- 5------ ------- 5------|
B|--------8---------------8------|--------7---------------7------|
G|--------7---------------7------|--------7---------------7------|
D|--------9---------------9------|--------7---------------7------|
A|-------------------------------|-------------------------------|
E|-------------------------------|-------------------------------|

e|7------ ------- -------10------|5------ ------- ------- ----5--|
B|8-----------------------8------|7-------------------5---7------|
G|7-----------------------7------|7---------------7--------------|
D|-------------------------------|-------------------------------|
A|-------------------------------|-------------------------------|
E|-------------------------------|-------------------------------|

                                                         

  G7                              C               Cm
e|------- ------- ------- -------|------- ------- ------- -------|
B|3-------3-------3-------3------|1-------1-------1-------1------|
G|0-------0-------0-------0------|0-------0-------0-------0------|
D|3-------3-------3-------3------|2-------2-------1-------1------|
A|-------------------------------|-------------------------------|
E|1-------1-------1-------1------|0-------0----------------------|  
  That assures        me      how     you     care 
e|------- 7------ ------- 7------|------- 8------ ------- 8------|
B|--------8---------------8------|--------8---------------8------|
G|--------7---------------7------|--------9---------------8------|
D|--------9---------------9------|-------10--------------10------|
A|-------------------------------|-------------------------------|
E|-------------------------------|-------------------------------|

e|7------ ------- -------10------|------- ------- ------- -------|
B|6-----------------------6------|8---------------8--------------|
G|7-----------------------7------|9---------------8--------------|
D|-------------------------------10--------------10--------------|
A|-------------------------------|-------------------------------|
E|-------------------------------|-------------------------------|



  D               Cdim            Em              D
e|2------ 2------ 2------ 2------|3------ 3------ 2------ 2------|
B|3-------3-------1-------1------|0-------0-------3-------3------|
G|2-------2-------2-------2------|0-------0-------2-------2------|
D|0-------0-------1-------1------|2-------2-------0-------0------|
A|-------------------------------|-------------------------------|
E|-------------------------------|-------------------------------|
  Our friends call    us      the perfect     pair        for the
e|------- 5------ ------- 5------|------- 7------ ------- 3------|
B|--------7---------------7------|--------8---------------3------|
G|--------7---------------5------|--------7---------------4------|
D|--------7---------------7------|--------9---------------5------|
A|-------------------------------|-------------------------------|
E|-------------------------------|-------------------------------|



  C               G               Am              D
e|0------ 0------ ------- -------|0------ 0------ 2------ 2------|
B|1-------1-------3-------3------|1-------1-------3-------3------|
G|0-------0-------0-------0------|2-------2-------2-------2------|
D|----------------0-------0------|----------------0-------0------|
A|3-------3-------2-------2------|0-------0----------------------|
E|-------------------------------|-------------------------------| 
  lovin'      things,     baby,   that we     share  
e|------- 8------ ------- 7------|------- 5------ ------- 5------|
B|--------8---------------8------|--------5---------------7------|
G|--------9---------------7------|--------5---------------7------|
D|-------10---------------9------|--------7---------------7------|
A|-------------------------------|-------------------------------|
E|-------------------------------|-------------------------------|  

e|------- ------- ------- -------|------- ------- ------- -------|
B|-------------------------------|----------------7-------7--10--|
G|-------------------------------|----------------7---9----------|
D|-------------------------------|----------------7--------------|
A|-------------------------------|-------------------------------|
E|-------------------------------|-------------------------------|



  G                               D
e|------- ------- ------- -------|------- ------- ------- -------|    
B|3-------3-------3-------3------|3-------3-------3-------3------|
G|0-------0-------0-------0------|2-------2-------2-------2------|
D|0-------0-------0-------0------|0-------0-------0-------0------|
A|-------------------------------|-------------------------------|
E|3-------3-------3-------3------|2-------2-------2-------2------|

e|------- ------- ------- -------|------- 5------ 3------ 2------|
B|------------3---3--------------|3---------------3--------------|
G|0------------------------------|2---------------2--------------|
D|0------------------------------|0------------------------------|
A|-------------------------------|-------------------------------|
E|-------------------------------|-------------------------------|

e|7------ ------- -------10------|5------ ------- ------- ----5--|
B|8-----------------------8------|7-------------------5---7------|
G|7-----------------------7------|7---------------7--------------|
D|-------------------------------|-------------------------------|
A|-------------------------------|-------------------------------|
E|-------------------------------|-------------------------------|



  G7                              C               Cm
e|------- ------- ------- -------|------- ------- ------- -------|
B|3-------3-------3-------3------|1-------1-------4-------4------|
G|0-------0-------0-------0------|0-------0-------5-------5------|
D|3-------3-------3-------3------|2-------2-------5-------5------|
A|-------------------------------|----------------6-------6------|
E|1-------1-------1-------1------|0-------0----------------------|

e|3------ ------- ------- 3------|------- ------- ------- -------|
B|3-----------------------3------|1---------------1--------------|
G|4------------------------------|0---------------0--------------|
D|3------------------------------|2---------------1--------------|
A|-------------------------------|-------------------------------|
E|-------------------------------|-------------------------------|

e|7------ ------- -------10------|------- ------- ------- -------|
B|6-----------------------6------|8---------------8--------------|
G|7-----------------------7------|9---------------8--------------|
D|-------------------------------10--------------10--------------|
A|-------------------------------|-------------------------------|
E|-------------------------------|-------------------------------|



  D               Cdim            Em              D
e|2------ ------- 2------ -------|3------ ------- 2------ -------|
B|3---------------1--------------|0---------------3--------------|
G|2---------------2--------------|0---------------2--------------|
D|0---------------1--------------|2---------------0--------------|
A|-------------------------------|-------------------------------|
E|-------------------------------|-------------------------------|

e|------- ------- ------- -------|------- ------- ------- -------|
B|3---3-------3-------1-------1--|1---0-------0-------0-------0--|
G|2-------------------2----------|0---------------0--------------|
D|4-------------------1----------|2---------------0--------------|
A|-------------------------------|-------------------------------|
E|-------------------------------|-------------------------------|



  C               G               Bbm             Eb7
e|0------ 0------ ------- -------|------- ------- 3------ 3------|
B|1-------1-------3-------3------|2-------2-------2-------2------|
G|0-------0-------0-------0------|3-------3-------3-------3------|
D|----------------0-------0------|3-------3-------1-------1------|
A|3-------3-------2-------2------|1-------1----------------------|
E|-------------------------------|-------------------------------|  

e|------- ------- ----3-- ----3--|4------ ------- ------- -------|
B|0------------------------------|----4-------4------------------|
G|0---0-------0-------0-------0--|1---------------3--------------|
D|2---------------0--------------|----1-------1------------------|
A|3---------------2--------------|1------------------------------|
E|-------------------------------|----------------3--------------|



  Ab                              Eb
e|------- ------- ------- -------|------- ------- ------- -------|
B|4-------4-------4-------4------|4-------4-------4-------4------|
G|5-------5-------5-------5------|3-------3-------3-------3------|
D|6-------6-------6-------6------|1-------1-------1-------1------|
A|-------------------------------|-------------------------------|
E|4-------4-------4-------4------|3-------3-------3-------3------|   
  It's the    lovin'          things  you     do              that
e|------- 8------ ------- 8------|------- 6------ ------- 6------|
B|--------9---------------9------|--------8---------------8------|
G|--------8---------------8------|--------8---------------8------|
D|-------10--------------10------|--------8---------------8------|
A|-------------------------------|-------------------------------|
E|-------------------------------|-------------------------------|

e|8------ ------- -------11------|6------ ------- ------- ----6--|
B|9-----------------------9------|8-------------------6---8------|
G|8-----------------------8------|8---------------8--------------|
D|-------------------------------|-------------------------------|
A|-------------------------------|-------------------------------|
E|-------------------------------|-------------------------------|



  Ab7                             C#              C#m
e|------- ------- ------- -------|------- ------- ------- -------|
B|4-------4-------4-------4------|2-------2-------2-------2------|
G|5-------5-------5-------5------|1-------1-------1-------1------|
D|4-------4-------4-------4------|3-------3-------2-------2------|
A|-------------------------------|-------------------------------|
E|4-------4-------4-------4------|1-------1-------0-------0------|
  make me     grow    so      close   to      you 
e|------- 4------ ------- 4------|------- 4------ ------- 4------|
B|--------7---------------7------|--------6---------------5------|
G|--------5---------------5------|--------6---------------6------|
D|--------6---------------6------|--------6---------------6------|
A|-------------------------------|-------------------------------|
E|-------------------------------|-------------------------------|

e|8------ ------- -------11------|------- ------- ------- -------|
B|7-----------------------7------|9---------------9--------------|
G|8-----------------------8------10---------------9--------------|
D|-------------------------------11--------------11--------------|
A|-------------------------------|-------------------------------|
E|-------------------------------|-------------------------------|



  Eb              C#dim           Fm              Eb
e|------- ------- ------- -------|------- ------- ------- -------|
B|8-------8-------8-------8------|9-------9-------8-------8------|
G|8-------8-------6-------6------10------10-------8-------8------|
D|8-------8-------8-------8------10------10-------8-------8------|
A|6-------6-------7-------7------|8-------8-------6-------6------|
E|-------------------------------|-------------------------------|
  Gonna       want    you   my whole  life    through     for the
e|------- 6------ ------- 6------|------- 8------ ------- 6------|
B|--------8---------------8------|--------9---------------8------|
G|--------8---------------6------|-------10---------------8------|
D|--------8---------------8------|-------10---------------8------|
A|-------------------------------|-------------------------------|
E|-------------------------------|-------------------------------|



  Dbm             Ab              Bbm             Eb
e|------- ------- ------- -------|------- ------- ------- -------|
B|6-------6-------4-------4------|2-------2-------4-------4------|
G|6-------6-------1-------1------|3-------3-------3-------3------|
D|6-------6-------1-------1------|3-------3-------1-------1------|
A|4-------4-------3-------3------|1-------1----------------------|
E|-------------------------------|----------------3-------3------|
  lovin'      things,     baby,   that you    do 
e|------- 9------ ------- 8------|------- 6------ ------- 6------|
B|--------9---------------9------|--------6---------------8------|
G|-------10---------------8------|--------6---------------8------|
D|-------11--------------10------|--------8---------------8------|
A|-------------------------------|-------------------------------|
E|-------------------------------|-------------------------------|

e|------- ------- ------- -------|------- ------- ------- -------|
B|-------------------------------|----------------8-------8--11--|
G|-------------------------------|----------------8--10----------|
D|-------------------------------|----------------8--------------|
A|-------------------------------|-------------------------------|
E|-------------------------------|-------------------------------|



  Ab                              Eb
e|------- ------- ------- -------|------- ------- ------- -------|
B|4-------4-------4-------4------|4-------4-------4-------4------|
G|5-------5-------5-------5------|3-------3-------3-------3------|
D|6-------6-------6-------6------|1-------1-------1-------1------|
A|-------------------------------|-------------------------------|
E|4-------4-------4-------4------|3-------3-------3-------3------|   
  It's the    lovin'          things  you     say             that
e|------- 8------ ------- 8------|------- 6------ ------- 6------|
B|--------9---------------9------|--------8---------------8------|
G|--------8---------------8------|--------8---------------8------|
D|-------10--------------10------|--------8---------------8------|
A|-------------------------------|-------------------------------|
E|-------------------------------|-------------------------------|

e|8------ ------- -------11------|6------ ------- ------- ----6--|
B|9-----------------------9------|8-------------------6---8------|
G|8-----------------------8------|8---------------8--------------|
D|-------------------------------|-------------------------------|
A|-------------------------------|-------------------------------|
E|-------------------------------|-------------------------------|
  ..............................Fade.............................


  Ab7                             C#              C#m    
e|------- ------- ------- -------|------- ------- ------- -------|
B|4-------4-------4-------4------|2-------2-------2-------2------|
G|5-------5-------5-------5------|1-------1-------1-------1------|
D|4-------4-------4-------4------|3-------3-------2-------2------|
A|-------------------------------|-------------------------------|
E|4-------4-------4-------4------|1-------1-------0-------0------|
  give me     comfort         every           day
e|------- 4------ ------- 4------|------- 4------ ------- 4------|
B|--------7---------------7------|--------6---------------5------|
G|--------5---------------5------|--------6---------------6------|
D|--------6---------------6------|--------6---------------6------|
A|-------------------------------|-------------------------------|
E|-------------------------------|-------------------------------|

e|8------ ------- -------11------|------- ------- ------- -------|
B|7-----------------------7------|9---------------9--------------|
G|8-----------------------8------10---------------9--------------|
D|-------------------------------11--------------11--------------|
A|-------------------------------|-------------------------------|
E|-------------------------------|-------------------------------| 
  ...............................................................


  Eb              C#dim           Fm              Eb
e|------- ------- ------- -------|------- ------- ------- -------|
B|8-------8-------8-------8------|9-------9-------8-------8------|
G|8-------8-------6-------6------10------10-------8-------8------|
D|8-------8-------8-------8------10------10-------8-------8------|
A|6-------6-------7-------7------|8-------8-------6-------6------|
E|-------------------------------|-------------------------------|
  By  your    side    I'm     gonna           stay    to  hear the
e|------- 6------ ------- 6------|------- 8------ ------- 6------|
B|--------8---------------8------|--------9---------------8------|
G|--------8---------------6------|-------10---------------8------|
D|--------8---------------8------|-------10---------------8------|
A|-------------------------------|-------------------------------|
E|-------------------------------|-------------------------------|     
  ...............................................................


  Db              Ab              Bbm             Eb
e|------- ------- ------- -------|------- ------- ------- -------|
B|6-------6-------4-------4------|2-------2-------4-------4------|
G|6-------6-------1-------1------|3-------3-------3-------3------|
D|6-------6-------1-------1------|3-------3-------1-------1------|
A|4-------4-------3-------3------|1-------1----------------------|
E|-------------------------------|----------------3-------3------|
  lovin'      things,     baby    that you    say
e|------- 9------ ------- 8------|------- 6------ ------- 6------|
B|--------9---------------9------|--------6---------------8------|
G|-------10---------------8------|--------6---------------8------|
D|-------11--------------10------|--------8---------------8------|
A|-------------------------------|-------------------------------|
E|-------------------------------|-------------------------------|
  ...............................................................








        B  Bend
        R  Release
        /  Slide up
        \  Slide down
        H  Hammer-on
        P  Pull-off
        ~  Vibrato
        +  Harmonic
        x  Mute note
        .  Play note like a dot in standard notation
        ^  Ties two notes together
        (. Pause
Comments