Marley Bob - Soul Rebel Chords & Tabs

 

Soul Rebel Chords & Tabs

Marley Bob Chords & Tabs

Version: 1 Type: Bass Tab 0 ratings
1 star 2 stars 3 stars 4 stars 5 stars
comments

Soul Rebel Bass Tab

"Soul Rebel" by Bob Marley
Bass tab by Justin Rivera (pistolgrippump2001@yahoo.com)
This is my first tab. If you see something wrong, please e-mail me
so I can go ahead and fix it.


Play the very last note as open just before you move to the next line
---------------------------------------------------------------------
---------------------------------------------------------------------
-4-4-4----2-3-4-4-4-4----4---4-2-2-2----0-1-2-2-2-2---2---2----------
--------4--------------4---4----------2-------------2---2------------


[ Tab from: http://www.guitartabs.cc/tabs/m/marley_bob/soul_rebel_btab.html ]
---------------------------------------------------------------------
---------------------------------------------------------2-2-2---1-2-
-2-2-2---0-1-2-2-2-2---2---2-4-4-4---2-3-4-4-4-4---4---4-------2-----
-------2-------------2---2---------4-------------4---4---------------


Play the last note on fret 2 before you go to the next line
---------------------------------------------------------------------
-4-4-4-4---4---4-----------------------------------------------------
---------4---4---2-2-2---0-1-2-2-2-2---2---0-------------------------
-----------------------2-------------2---2---------------------------
Comments