Marley Bob - Redemption Song Intro Chords & Tabs

 

Redemption Song Intro Chords & Tabs

Marley Bob Chords & Tabs

Version: 1 Type: Tab 1 rating
1 star 2 stars 3 stars 4 stars 5 stars
comments

Redemption Song Intro Tab

e||----------------------------------------------------------||
b||----------------------------------------------------------||
g||----------------------------------------------------------||
d||------------------2--0--------------0----2320-------------||
a||-----0--2------2--------2-----0--2------------------------||
e||--3---------3--------------3-------------------3----------||
[ Tab from: http://www.guitartabs.cc/tabs/m/marley_bob/redemption_song_intro_tab.html ]

e||----------------------------------------------------------||
b||----------------------------------------------------------||
g||----------------------------------------------------------||
d||------------------2--0--------------0----2320-------------||
a||-----0--2------2--------2-----0--2------------------------||
e||--3---------3--------------3-------------------3----------||
[ Tab from: http://www.guitartabs.cc/tabs/m/marley_bob/redemption_song_intro_tab.html ]
Comments