Marley Bob - One Drop Chords & Tabs


One Drop Chords & Tabs

Marley Bob Chords & Tabs

Version: 2 Type: Bass Tab 0 ratings
1 star 2 stars 3 stars 4 stars 5 stars

One Drop Bass Tab

"One Drop"
Bob Marley And The Wailers
from the album SURVIVAL
Bass Tab by: Andre Torrez (

This is one of my favorite Bob Marley songs, as well as one of my favorite 
Aston "Family Man" Barrett bass lines.
[ Tab from: ]
"Feel it in the one drop..."
G ---------------------------------------
D ---------------------------------------
A -----------------------4-4-7-----6-6-9-
E -----------------5-5-5-------7-7-------

G ---------------------------------------
D --------4-4-7-----6--------------------
A --5-5-5-------7-7---7------------------
E ----------------------7----------------

Just repeat throughout song.

This is my own interpretation of the song. It's also my first attempt at 
posting/transcribing a tab. Please send corrections and comments to: