Marley Bob - Knockin On Heavens Door Chords & Tabs

 

Knockin On Heavens Door Chords & Tabs

Marley Bob Chords & Tabs

Version: 1 Type: Bass Tab 0 ratings
1 star 2 stars 3 stars 4 stars 5 stars
comments

Knockin On Heavens Door Bass Tab

Song: Knockin' on Heaven's Door  (reggae version)
Artist: Bob Marley

i'm positive that this is 100% correct, so have fun.
[ Tab from: http://www.guitartabs.cc/tabs/m/marley_bob/knockin_on_heavens_door_btab.html ]
G ------------------------2-2--------------------------------------2-2-
D ------5-5------5-5------------------------------5-5------5-5---------
A -------------------0-0-------0h2--2-2------------------------0-0-----
E --3-3-----2-2-------------------------3-2---3-3-----2-2--------------

    1 2 & 3 4 &  1 & 1 2 & 3   4 & 1 & 2 3    1 2 & 3 4 &  1 2 & 3 4 &

  -----------------------------------------
  -----------------------------------------
  ------2-3-4-5----------------------------
  -3-3-------------------------------------

   1 2     & 3  &
Comments