Marley Bob - Get Up Stand Up Chords & Tabs

 

Get Up Stand Up Chords & Tabs

Marley Bob Chords & Tabs

Version: 2 Type: Bass Tab 0 ratings
1 star 2 stars 3 stars 4 stars 5 stars
comments

Get Up Stand Up Bass Tab

This is the correct way to play this song. I tried to get the timing
as accurate as possible but if you're still having trouble just
listen to the song and you'll get it.


Verse (repeat until chorus)
[ Tab from: http://www.guitartabs.cc/tabs/m/marley_bob/get_up_stand_up_btab_ver_2.html ]
G ---------------------------------
D ------4-----------------4--------
A 2--2----5---4-5-4-2--2-----------
E ---------------------------2-2--5


Chorus

G --------7-----------------------
D -----4------0--2-4--------------
A 5-7-------------------0-2-------
E --------------------------------


- Hoss.
Comments