Marley Bob - Concrete Jungle Chords & Tabs

 

Concrete Jungle Chords & Tabs

Marley Bob Chords & Tabs

Version: 1 Type: Tab 0 ratings
1 star 2 stars 3 stars 4 stars 5 stars
comments

Concrete Jungle Tab

   
----------------------------------------------------------------------------
			 CONCRETE JUNGLE - Bob Marley
----------------------------------------------------------------------------
Tabbed by:BIGBOPPA

Tuning:Standard


    Em

e|--7---7---7---7---7---7---7---7--|
B|--8---8---8---8---8---8---8---8--|
G|--9---9---9---9---9---9---9---9--|   Intro (just to get the rhythm)
D|--9---9---9---9---9---9---9---9--|
A|--7---7---7---7---7---7---7---7--|
E|---------------------------------|


    Em              Am              Em              Em

e|--7---7---7---7---5---5---5---5---7---7---7---7---7---7---7---7--|
B|--8---8---8---8---5---5---5---5---8---8---8---8---8---8---8---8--|
G|--9---9---9---9---5---5---5---5---9---9---9---9---9---9---9---9--|  
D|--9---9---9---9---7---7---7---7---9---9---9---9---9---9---9---9--|
A|--7---7---7---7---7---7---7---7---7---7---7---7---7---7---7---7--|
E|------------------5---5---5---5----------------------------------|


    Em              Am              D               D

e|--7---7---7---7---5---5---5---5---5---5---5---5---5---5---5---5--|
B|--8---8---8---8---5---5---5---5---7---7---7---7---7---7---7---7--|
G|--9---9---9---9---5---5---5---5---7---7---7---7---7---7---7---7--|
D|--9---9---9---9---7---7---7---7---7---7---7---7---7---7---7---7--|
A|--7---7---7---7---7---7---7---7---5---5---5---5---5---5---5---5--|
E|------------------5---5---5---5----------------------------------|


    C             Cmaj7             C             Cmaj7             
[ Tab from: http://www.guitartabs.cc/tabs/m/marley_bob/concrete_jungle_tab.html ]
e|--3---3---3---3---3---3---3---3---3---3---3---3---3---3---3---3--|
B|--5---5---5---5---5---5---5---5---5---5---5---5---5---5---5---5--|
G|--5---5---5---5---4---4---4---4---5---5---5---5---4---4---4---4--|
D|--5---5---5---5---5---5---5---5---5---5---5---5---5---5---5---5--|
A|--3---3---3---3---3---3---3---3---3---3---3---3---3---3---3---3--|
E|-----------------------------------------------------------------|


    G               G               D               D               

e|--3---3---3---3---3---3---3---3---5---5---5---5---5---5---5---5--|
B|--3---3---3---3---3---3---3---3---7---7---7---7---7---7---7---7--|
G|--4---4---4---4---4---4---4---4---7---7---7---7---7---7---7---7--|
D|--5---5---5---5---5---5---5---5---7---7---7---7---7---7---7---7--|
A|--5---5---5---5---5---5---5---5---5---5---5---5---5---5---5---5--|
E|--3---3---3---3---3---3---3---3----------------------------------|


    Em      

e|--7---7---7---7---7---7---7---7---7---7---7---7---7---7---7---7--|
B|--8---8---8---8---8---8---8---8---8---8---8---8---8---8---8---8--|
G|--9---9---9---9---9---9---9---9---9---9---9---9---9---9---9---9--|
D|--9---9---9---9---9---9---9---9---9---9---9---9---9---9---9---9--|
A|--7---7---7---7---7---7---7---7---7---7---7---7---7---7---7---7--|
E|-----------------------------------------------------------------|


    Em                              Em

e|--7---7---10--10--9---9---8---8---7---7---10--10--9---9---8---8--|
B|--8---8---8---8---8---8---8---8---8---8---8---8---8---8---8---8--|
G|--9---9---9---9---9---9---9---9---9---9---9---9---9---9---9---9--|  Chorus
D|-----------------------------------------------------------------|
A|-----------------------------------------------------------------|
E|-----------------------------------------------------------------|

============================================================================
Comments