Marley Bob - Concrete Jungle Chords & Tabs

 

Concrete Jungle Chords & Tabs

Marley Bob Chords & Tabs

Version: 1 Type: Bass Tab 0 ratings
1 star 2 stars 3 stars 4 stars 5 stars
comments

Concrete Jungle Bass Tab

   
Song: Concrete Jungle
Band: Bob Marley and the Wailers
Album: Catch a Fire
Tabbed by: Rob MacGuffie (SubDubLBC@aol.com)

This is Bass and Guitar Chords too....I am sure there are
players out there that would like this song, and i mean, why
just have bass, i can't imagine just a solo bass arrangement
of this Marley great.  I hope to see more like this from others.


Intro:
   Em    Em
|--------------|
|--------------|
|---7------7---|
|-0-----0----7-|


Verse:
   Em			Am		Em		   Em
|------------------------------------------------------|
|------------------------------------------------------|
|----7-7------------------------7-7----------7-------7-|
|-0------7--0-----5-5--8-----0------7--0--------0--7---|

   Em		    Am       D         D
|---------------------------------------------|
|--------------------------------------4-4----|
|-7-7-------------------5-5-------5-----------|
|-----7--0-----5-5--8---------------5-------3-|
   
[ Tab from: http://www.guitartabs.cc/tabs/m/marley_bob/concrete_jungle_btab.html ]
   C		  Em               C          Em
|----------------------------------------------------|
|----------------------------------------------------|
|------7--------7-7----------------7-------7-7-------|
|-8-8--------0------7--0------8-8--------0------7--0-|

   G           G              D
|------------------------------------------|
|----------5----------------------------4-4|
|----2--5--------2--5-----------5---5-5----|
|-3-----------3-------3------3-------------|


   Em			   Am		  Em	
|-------------------------------------------|
|-------------------------------------------|
|------7-7-------------------------7-7------|
|-0-0------7--0-----5-5--8-----0-7-----7--0-|
  Em	    Em	   Em      Em
|---------------------------------|
|---------------------------------|
|---7------7----------7-------7---|
|-0------0---7------0-------0---7-|

After this repeat the verse. Then play the 
intro until the end... 

Comments