Marlene Kuntz - Cometa Chords & Tabs

 

Cometa Chords & Tabs

Marlene Kuntz Chords & Tabs

Version: 1 Type: Tab 0 ratings
1 star 2 stars 3 stars 4 stars 5 stars
comments

Cometa Tab

   
MARLENE KUNTZ - COMETA

Intro:
e|-------------------------------------------------|
B|*-----------------------------------------------*|
G|--x/12-12-12-12-12-12-12-12\8-8-8-8/10-10-10-10--|
D|-------------------------------------------------|2 x
A|*-x/10-10-10-10-10-10-10/12\6-6-6-6/8--8--8--8--*|
E|-------------------------------------------------|

Verse:

Gtr1
e|-----------------|-----------------|
B|*----------------|----------------*|
G|-----------------|-----------------|
D|-5-5-5-5-5-5-5-5-|-8-8-8-8-8-8-8-8-|
A|*5-5-5-5-5-5-5-5-|-8-8-8-8-8-8-8-8*|
E|-3-3-3-3-3-3-3-3-|-6-6-6-6-6-6-6-6-|
[ Tab from: http://www.guitartabs.cc/tabs/m/marlene_kuntz/cometa_tab.html ]
Gtr2
e|-------------------------|-----------------|
B|*------------------------|----------------*|
G|-------------------------|-----------------|
D|-12-12-12-12-12-12-12-12-|-8-8-8-8-8-8-8-8-|
A|*------------------------|----------------*|
E|-10-10-10-10-10-10-10-10-|-6-6-6-6-6-6-6-6-|

Break 1
e|------------------------|
B|------------------------|
G|-12--------------|
D|------------------------|
A|-10---------------------|
E|------------------------|

Break 2:
e|-------------------------|
B|-------------------------|
G|-12-12-12-12-12-12-12-12-|
D|-------------------------|
A|-10-10-10-10-10-10-10-10-|
E|-------------------------|

Chorus: Gm  Eb5(power-chord with root on 6th fret A string)

quindi ripetere tutto da capo


Per commenti o correzioni la mia mail รจ fleafly_@libero.it
Comments