Mark Lowry - Mary Did You Know Chords & Tabs

 

Mary Did You Know Chords & Tabs

Mark Lowry Chords & Tabs

Version: 1 Type: Tab

Mary Did You Know Tab

E -----------0---2----2-0---------------0-------2--0---0--2---2--0---------|
B --0--2---3--------0-----3-2-0-0-2-3------3--2------3------0------3--2--0-|
G -------------------------------------------------------------------------|
D -------------------------------------------------------------------------|
A -------------------------------------------------------------------------|
E -------------------------------------------------------------------------|

E -----------0---2----2--5----7-7--10--9--7--5---2-2---5-5--7-7---2-3---2-|
B --0--2---3--------------------------------------------------------------|
G ------------------------------------------------------------------------|
D ------------------------------------------------------------------------|
A ------------------------------------------------------------------------|
E ------------------------------------------------------------------------|
[ Tab from: http://www.guitartabs.cc/tabs/m/mark_lowry/mary_did_you_know_tab.html ]
E --0--------0---2--2-2-2-2-3-2-------------------------------------------|
B ------3-----------------------------------------------------------------|
G ------------------------------------------------------------------------|
D ------------------------------------------------------------------------|
A ------------------------------------------------------------------------|
E ------------------------------------------------------------------------|

E -----------0---2----2-0---------------0-------2--0---0--2---2--0---------|
B --0--2---3--------0-----3-2-0-0-2-3------3--2------3------0------3--2--0-|
G -------------------------------------------------------------------------|
D -------------------------------------------------------------------------|
A -------------------------------------------------------------------------|
E -------------------------------------------------------------------------|

E -----------0---2----2--5----7-7--10--9--7--5---2-2---5-5--7-7---2-3---2-|
B --0--2---3--------------------------------------------------------------|
G ------------------------------------------------------------------------|
D ------------------------------------------------------------------------|
A ------------------------------------------------------------------------|
E ------------------------------------------------------------------------|
[ Tab from: http://www.guitartabs.cc/tabs/m/mark_lowry/mary_did_you_know_tab.html ]
E --0--------0---2--2-2-2-2-3-2-------------------------------------------|
B ------3-----------------------------------------------------------------|
G ------------------------------------------------------------------------|
D ------------------------------------------------------------------------|
A ------------------------------------------------------------------------|
E ------------------------------------------------------------------------|